Artists by letter: A B C D E F G H I J K L M N O P Q R S T U V W X Y Z 0-9

 
How I Go Tab
Song: How I Go
Artist: Yellowcard
Album: Lights and Sounds

Tabbed by: Trevor Paxton

Standard Tuning (EADGBE, low to high)

NOTE: Listen to song for strumming patterns.

Intro
                     
e|--0-0-0-0-0-0--0-0-0-0-0-0--0-0-0-0-0-0--0-0-0-0-0-0-|
B|--0-0-0-0-0-0--0-0-0-0-0-0--0-0-0-0-0-0--0-0-0-0-0-0-|
G|--9-9-9-9-9-9--9-9-9-9-9-9--9-9-9-9-9-9--9-9-9-9-9-9-| x2
D|--x-----x------6-----6------9-----9------7-----7-----|
A|--9-----9--------------------------------------------|
E|-----------------------------------------------------|

e|----0-0----0-0----0-0-----0-0-|
B|----0-0----0-0----0-0-----0-0-|
G|--9-9-9--9-9-9--9-9-9---9-9-9-| x1
D|--9------7------6-------7-----|
A|------------------------9-----|
E|------------------------------|

Verse 1 (I could tell you the wildest of tales...)

e|--0-0-0-0-0-0--0-0-0-0-0-0--0-0-0-0-0-0--0---0-0-0-0-0-|
B|--0-0-0-0-0-0--0-0-0-0-0-0--0-0-0-0-0-0--0---0-0-0-0-0-|
G|--9-9-9-9-9-9--9-9-9-9-9-9--9-9-9-9-9-9--9---9-9-9-9-9-| x2
D|--9-----9------x-----x------x-----x------x-------x-----|
A|---------------9-----9------6-----6----- 6/7-----7-----|
E|-------------------------------------------------------|

Chorus 1 (And I'm drying out...)

e|--0-0-0-0-0-0--0-0-0-0-0-0--0-0-0-0-0-0--0~-|
B|--0-0-0-0-0-0--0-0-0-0-0-0--0-0-0-0-0-0--0~-|
G|--6-6-6-6-6-6--9-9-9-9-9-9--4-4-4-4-4-4--2~-| x1
D|--6-----6------9-----9------4-----4------2~-|
A|--4-----4------7-----7------2-----2------0~-|
E|--------------------------------------------|

e|----0-0----0-0----0-0-----0-0-|
B|----0-0----0-0----0-0-----0-0-|
G|--9-9-9--9-9-9--9-9-9---9-9-9-| x1
D|--9------7------6-------7-----|
A|------------------------9-----|
E|------------------------------|

Verse 2 (I could tell you of a man not so tall...)

e|--0-0-0-0-0-0--0-0-0-0-0-0--0-0-0-0-0-0--0---0-0-0-0-0-|
B|--0-0-0-0-0-0--0-0-0-0-0-0--0-0-0-0-0-0--0---0-0-0-0-0-|
G|--9-9-9-9-9-9--9-9-9-9-9-9--9-9-9-9-9-9--9---9-9-9-9-9-| x2
D|--9-----9------x-----x------x-----x------x-------x-----|
A|---------------9-----9------6-----6----- 6/7-----7-----|
E|-------------------------------------------------------|

Chorus 2 (And I'm drying out...)

e|--0-0-0-0-0-0--0-0-0-0-0-0--0-0-0-0-0-0--0-0-0-0-0-0-|
B|--0-0-0-0-0-0--0-0-0-0-0-0--0-0-0-0-0-0--0-0-0-0-0-0-|
G|--6-6-6-6-6-6--9-9-9-9-9-9--4-4-4-4-4-4--2-2-2-2-2-2-| x2
D|--6-----6------9-----9------4-----4------2-----2-----|
A|--4-----4------7-----7------2-----2------0-----0-----|
E|-----------------------------------------------------|

Chorus 2 Cont. (Flow...)

e|--0-0-0-0-0-0--0-0-0-0-0-0--0-0-0-0-0-0--0-0-0-0-0-0-|
B|--0-0-0-0-0-0--0-0-0-0-0-0--0-0-0-0-0-0--0-0-0-0-0-0-|
G|--4-4-4-4-4-4--6-6-6-6-6-6--2-2-2-2-2-2--1-1-1-1-1-1-| x1
D|--4-----4------6-----6------2-----2------2-----2-----|
A|--2-----2------4-----4------0-----0------2-----2-----|
E|-----------------------------------------0-----0-----|

Chorus 2 Cont. (Flow...)

e|--0-0-0-0-0-0--0-0-0-0-0-0--0-0-0-0-0-0--0-0-0-0-0-0-|
B|--0-0-0-0-0-0--0-0-0-0-0-0--0-0-0-0-0-0--0-0-0-0-0-0-|
G|--4-4-4-4-4-4--6-6-6-6-6-6--2-2-2-2-2-2--2-2-2-2-2-2-| x1
D|--4-----4------6-----6------4-----4------2-----2-----|
A|--2-----2------4-----4------4-----4------0-----0-----|
E|----------------------------2-----2------------------|

Bridge 1 (Son, I am not everything...)

e|--0-0-0-0-0-0-0--0-0-0-0-0-0--0-0-0-0-0-0--0-0-0-0-0-0-|
B|--0-0-0-0-0-0-0--0-0-0-0-0-0--0-0-0-0-0-0--0-0-0-0-0-0-|
G|--6-6-6-6-6-6-6--4-4-4-4-4-4--2-2-2-2-2-2--1-1-1-1-1-1-| x1
D|--6-----6--------4-----4------2-----2------2-----2-----|
A|--4-----4--------2-----2------0-----0------2-----2-----|
E|-------------------------------------------0-----0-----|

Bridge 1 Cont. (But every story I have told...)

e|--0-0-0-0-0-0-0--0-0-0-0-0-0--0-0-0-0-0-0--0-0-0-0-0-0-|
B|--0-0-0-0-0-0-0--0-0-0-0-0-0--0-0-0-0-0-0--0-0-0-0-0-0-|
G|--6-6-6-6-6-6-6--1-1-1-1-1-1--2-2-2-2-2-2--4-4-4-4-4-4-| x1
D|--6-----6--------2-----2------2-----2------4-----4-----|
A|--4-----4--------2-----2------0-----0------2-----2-----|
E|-----------------0-----0-------------------------------|

Interlude (Ohh...)

e|--0-0-0-0-0-0-0--0-0-0-0-0-0--0-0-0-0-0-0--0-0-0-0-0-0-|
B|--0-0-0-0-0-0-0--0-0-0-0-0-0--0-0-0-0-0-0--0-0-0-0-0-0-|
G|--1-1-1-1-1-1-1--1-1-1-1-1-1--6-6-6-6-6-6--4-4-4-4-4-4-| x2
D|--2-----2--------2-----2------6-----6------4-----4-----|
A|--2-----2--------2-----2------4-----4------2-----2-----|
E|--0-----0--------0-----0-------------------------------|

Interlude Cont.

e|--0-0-0-0-0-0-0--0-0-0-0-0-0--0-0-0-0-0-0--0-0-0-0-0-0-|
B|--0-0-0-0-0-0-0--0-0-0-0-0-0--0-0-0-0-0-0--0-0-0-0-0-0-|
G|--6-6-6-6-6-6-6--6-6-6-6-6-6--2-2-2-2-2-2--4-4-4-4-4-4-| x2
D|--6-----6--------6-----6------2-----2------4-----4-----|
A|--4-----4--------4-----4------0-----0------2-----2-----|
E|-------------------------------------------------------|

Interlude Cont.

e|----0-0----0-0----0-0-----0-0-|
B|----0-0----0-0----0-0-----0-0-|
G|--9-9-9--9-9-9--9-9-9---9-9-9-| x1
D|--9------7------6-------7-----|
A|------------------------9-----|
E|------------------------------|

Verse 3 (You keep the air in my lungs...)

e|--0-0-0-0-0-0--0-0-0-0-0-0--0-0-0-0-0-0--0---0-0-0-0-0-|
B|--0-0-0-0-0-0--0-0-0-0-0-0--0-0-0-0-0-0--0---0-0-0-0-0-|
G|--9-9-9-9-9-9--9-9-9-9-9-9--9-9-9-9-9-9--9---9-9-9-9-9-| x2
D|--9-----9------x-----x------x-----x------x-------x-----|
A|---------------9-----9------6-----6----- 6/7-----7-----|
E|-------------------------------------------------------|

Chorus 3 (And I'm drying out...)

e|--0-0-0-0-0-0--0-0-0-0-0-0--0-0-0-0-0-0--0-0-0-0-0-0-|
B|--0-0-0-0-0-0--0-0-0-0-0-0--0-0-0-0-0-0--0-0-0-0-0-0-|
G|--6-6-6-6-6-6--9-9-9-9-9-9--4-4-4-4-4-4--2-2-2-2-2-2-| x2
D|--6-----6------9-----9------4-----4------2-----2-----|
A|--4-----4------7-----7------2-----2------0-----0-----|
E|-----------------------------------------------------|

Chorus 3 Cont. (Flow...)

e|--0-0-0-0-0-0--0-0-0-0-0-0--0-0-0-0-0-0--0-0-0-0-0-0-|
B|--0-0-0-0-0-0--0-0-0-0-0-0--0-0-0-0-0-0--0-0-0-0-0-0-|
G|--4-4-4-4-4-4--6-6-6-6-6-6--2-2-2-2-2-2--1-1-1-1-1-1-| x4
D|--4-----4------6-----6------2-----2------2-----2-----|
A|--2-----2------4-----4------0-----0------2-----2-----|
E|-----------------------------------------0-----0-----|

Chorus 3 Cont. (Flow...)

e|--0-0-0-0-0-0--0-0-0-0-0-0--0-0-0-0-0-0--0-0-0-0-0-0-|
B|--0-0-0-0-0-0--0-0-0-0-0-0--0-0-0-0-0-0--0-0-0-0-0-0-|
G|--4-4-4-4-4-4--6-6-6-6-6-6--2-2-2-2-2-2--2-2-2-2-2-2-| x1
D|--4-----4------6-----6------4-----4------2-----2-----|
A|--2-----2------4-----4------4-----4------0-----0-----|
E|----------------------------2-----2------------------|

Interlude 2 (Instrumental)

e|--0-0-0-0-0-0--0-0-0-0-0-0--0-0-0-0-0-0--0-0-0-0-0-0-|
B|--0-0-0-0-0-0--0-0-0-0-0-0--0-0-0-0-0-0--0-0-0-0-0-0-|
G|--2-2-2-2-2-2--2-2-2-2-2-2--2-2-2-2-2-2--2-2-2-4-4-4-| x1
D|--4-----4------2-----2------2-----2------2-----4-----|
A|--4-----4------0-----0------0-----0------0-----2-----|
E|--2-----2--------------------------------------------|

Bridge 2 (Son, I am not everything...)

e|--0-0-0-0-0-0-0--0-0-0-0-0-0--0-0-0-0-0-0--0-0-0-0-0-0-|
B|--0-0-0-0-0-0-0--0-0-0-0-0-0--0-0-0-0-0-0--0-0-0-0-0-0-|
G|--6-6-6-6-6-6-6--4-4-4-4-4-4--2-2-2-2-2-2--1-1-1-1-1-1-| x1
D|--6-----6--------4-----4------2-----2------2-----2-----|
A|--4-----4--------2-----2------0-----0------2-----2-----|
E|-------------------------------------------0-----0-----|

Bridge 2 Cont. (But every story I have told...)

e|--0-0-0-0-0-0-0--0-0-0-0-0-0--0-0-0-0-0-0--0-0-0-0-0-0-|
B|--0-0-0-0-0-0-0--0-0-0-0-0-0--0-0-0-0-0-0--0-0-0-0-0-0-|
G|--6-6-6-6-6-6-6--1-1-1-1-1-1--2-2-2-2-2-2--4-4-4-4-4-4-| x1
D|--6-----6--------2-----2------2-----2------4-----4-----|
A|--4-----4--------2-----2------0-----0------2-----2-----|
E|-----------------0-----0-------------------------------|

Bridge 2 Cont. (Son, I leave you now...)

e|--0-0-0-0-0-0-0--0-0-0-0-0-0--0-0-0-0-0-0--0-0-0-0-0-0-|
B|--0-0-0-0-0-0-0--0-0-0-0-0-0--0-0-0-0-0-0--0-0-0-0-0-0-|
G|--6-6-6-6-6-6-6--4-4-4-4-4-4--2-2-2-2-2-2--1-1-1-1-1-1-| x1
D|--6-----6--------4-----4------2-----2------2-----2-----|
A|--4-----4--------2-----2------0-----0------2-----2-----|
E|-------------------------------------------0-----0-----|

Bridge 2 Cont. (And every story I have told...)

e|--0-0-0-0-0-0-0--0-0-0-0-0-0--0-0-0-0-0-0--0-0-0-0-0-0-|
B|--0-0-0-0-0-0-0--0-0-0-0-0-0--0-0-0-0-0-0--0-0-0-0-0-0-|
G|--6-6-6-6-6-6-6--1-1-1-1-1-1--2-2-2-2-2-2--4-4-4-4-4-4-| x1
D|--6-----6--------2-----2------2-----2------4-----4-----|
A|--4-----4--------2-----2------0-----0------2-----2-----|
E|-----------------0-----0-------------------------------|

Outro

e|----0-0----0-0----0-0-----0-0--0~-|
B|----0-0----0-0----0-0-----0-0--0~-|
G|--9-9-9--9-9-9--9-9-9---9-9-9--9~-| x1
D|--9------7------6-------7------9~-|
A|------------------------9------7~-|
E|----------------------------------|


Key:
~ - let ring
/ - slide
x - mute string

This tab is about 99% correct.  If there are any big mistakes, questions, comments,
or concerns, please email me at [email protected]  Thank you and enjoy.

 
 
Yellowcard - How I Go Tab :: indexed at Ultimate Guitar.
How I Go tabs @ 911Tabs

About the artist behind How I Go Tab:

Yellowcard is an alternative rock multi-platinum selling band from Jacksonville, Florida. Their music features a rare contribution to the genre, incorporating the use of a violin.

The band is not currently active and is on a self-described "indefinite hiatus."

Indexed at Wikipedia.

Show us your talent, perform How I Go Tab!

Here you can post a video or audio performance. Tell me more ...
Where can we find your performance? Tell me more ...
Your comment:
Please, log in to post your performance.