Artists by letter: A B C D E F G H I J K L M N O P Q R S T U V W X Y Z 0-9

 
Holly Wood Died Tab
Title - Holly Wood Died
Artist- Yellowcard
Album - Lights and Sounds

Tabbed by: Larry A

Tuning: Standard
Guitar 1 - Distortion
Guitar 2 - Slight Distortion
Guitar 3 - Slight Distortion (tabbed for other effects)

 _________________
|Intro (0:00-0:22)|
|_________________|

Guitar 1
e| |---------------------------------|---------------------------------|
B| |---------------------------------|---------------------------------|
G| |---------------------------------|---------------------------------|
D| |---------------------------------|---------------------------------|
A| |-4-4-4-4-4-4-4-4-4-4-4-4-4-4-4-4-|-0-0-0-0-0-0-0-0-0-0-0-0-0-0-0-0-|
E| |---------------------------------|---------------------------------|
     * * * * * * * * * * * * * * * *   * * * * * * * * * * * * * * * *
     Accidents out on the              highway to somewhere they

Guitar 1
e| |---------------------------------|---------------------------------|
B| |---------------------------------|---------------------------------|
G| |---------------------------------|---------------------------------|
D| |---------------------------------|---------------------------------|
A| |---------------------------------|-0-0-0-0-0-0-0-0-0-0-0-0-0-0-0-0-|
E| |-2-2-2-2-2-2-2-2-4-4-4-4-4-4-4-4-|---------------------------------|
     * * * * * * * * * * * * * * * *   * * * * * * * * * * * * * * * *
     tell us         about when we're  young

Guitar 1
e| |---------------------------------|---------------------------------|
B| |---------------------------------|---------------------------------|
G| |---------------------------------|---------------------------------|
D| |---------------------------------|---------------------------------|
A| |-4-4-4-4-4-4-4-4-4-4-4-4-4-4-4-4-|---------------------------------|
E| |---------------------------------|-0-0-0-0-0-0-0-0-0-0-0-0-0-0-0-0-|
     * * * * * * * * * * * * * * * *   * * * * * * * * * * * * * * * *
     Rescuers working to               clean up the crashes be

Guitar 1
e| |---------------------------------|---------------------------------|
B| |---------------------------------|---------------------------------|
G| |---------------------------------|---------------------------------|
D| |---------------------------------|---------------------------------|
A| |---------------------------------|-0-0-0-0-0-0-0-0-0-0-0-0-0-0-0-0-|
E| |-2-2-2-2-2-2-2-2-4-4-4-4-4-4-4-4-|---------------------------------|
     * * * * * * * * * * * * * * * *   * * * * * * * *                 |
     -fore she can   see what they've  done                            |
                                                                       |
Guitar 2                                                               |
e| |---------------------------------|---------------------------------|
B| |---------------------------------|---------------------------------|
G| |---------------------------------|---------------------------------|
D| |---------------------------------|-------------------------2-2-2-2-|
A| |---------------------------------|-----------------4-4-4-4-4-4-4-4-|
E| |---------------------------------|---------------------------------|

 _________________
|Verse (0:22-0:48)|
|_________________|

Guitar 1
e| |---------------------------------|---------------------------------|
B| |---------------------------------|---------------------------------|
G| |---------------------------------|---------------------------------|
D| |---------------------------------|---------------------------------|
A| |-4-4-4-4-4-4-4-4-4-4-4-4-4-4-4-4-|-0-0-0-0-0-0-0-0-0-0-0-0-0-0-0-0-|
E| |---------------------------------|---------------------------------|
     Nobody told her she'd             lose in the first round the     |
                                                                       |
Guitar 2                                                               |
e| |---------------------------------|---------------------------------|
B| |-----0-------0-------0-------0---|-----0-------0-------0-------0---|
G| |-----4-------4-------4-------4---|-----4-------4-------4-------4---|
D| |-2-2-----2-2-----2-2-----2-2-----|-2-2-----2-2-----2-2-----2-2-----|
A| |-4-4-----4-4-----4-4-----4-4-----|-4-4-----4-4-----4-4-----4-4-----|
E| |---------------------------------|---------------------------------|

Guitar 1
e| |---------------------------------|---------------------------------|
B| |---------------------------------|---------------------------------|
G| |---------------------------------|---------------------------------|
D| |---------------------------------|---------------------------------|
A| |---------------------------------|-0-0-0-0-0-0-0-0-0-0-0-0-0-0-0-0-|
E| |-2-2-2-2-2-2-2-2-4-4-4-4-4-4-4-4-|---------------------------------|
     last fight was  fixed from the    start                           |
                                                                       |
Guitar 2                                                               |
e| |---------------------------------|---------------------------------|
B| |-----0-------0-------0-------0---|-----0-------0-------0-------0---|
G| |-----4-------4-------4-------2---|-----2-------4-------4-------4---|
D| |-2-2-----2-2-----2-2-----2-2-----|-2-2-----2-2-----2-2-----2-2-----|
A| |-4-4-----4-4-----4-4-----4-4-----|-4-4-----4-4-----4-4-----4-4-----|
E| |---------------------------------|---------------------------------|

Guitar 1
e| |---------------------------------|---------------------------------|
B| |---------------------------------|---------------------------------|
G| |---------------------------------|---------------------------------|
D| |---------------------------------|---------------------------------|
A| |-4-4-4-4-4-4-4-4-4-4-4-4-4-4-4-4-|---------------------------------|
E| |---------------------------------|-0-0-0-0-0-0-0-0-0-0-0-0-0-0-0-0-|
     Names on her sidewalks they       move through her body           |
                                                                       |
Guitar 2                                                               |
e| |---------------------------------|---------------------------------|
B| |-----0-------0-------0-------0---|-----0-------0-------0-------0---|
G| |-----4-------4-------4-------4---|-----4-------4-------4-------4---|
D| |-2-2-----2-2-----2-2-----2-2-----|-2-2-----2-2-----2-2-----2-2-----|
A| |-4-4-----4-4-----4-4-----4-4-----|-4-4-----4-4-----4-4-----4-4-----|
E| |---------------------------------|---------------------------------|

Guitar 1
e| |---------------------------------|---------------------------------|
B| |o--------------------------------|--------------------------------o|
G| |---------------------------------|---------------------------------|
D| |---------------------------------|---------------------------------|
A| |o--------------------------------|-0-0-0-0-0-0-0-0-0-0-0-0-0-0-0-0o|
E| |-2-2-2-2-2-2-2-2-4-4-4-4-4-4-4-4-|---------------------------------|
  1. Like razors they cut through her  heart                           |
  2. Like razors they cut through her  heart                           |
                                                                       |
Guitar 2                                                               |
e| |---------------------------------|---------------------------------|
B| |o----0-------0-------0-------0---|-----0-------0-------0-------0--o|
G| |-----4-------4-------4-------4---|-----4-------4-------4-------4---|
D| |-2-2-----2-2-----2-2-----2-2-----|-2-2-----2-2-----2-2-----2-2-----|
A| |o4-4-----4-4-----4-4-----4-4-----|-4-4-----4-4-----4-4-----4-4----o|
E| |---------------------------------|---------------------------------|

 __________________
|Chorus (0:49-1:11)|
|__________________|

Guitar 1
e| |---------------------------------|---------------------------------|
B| |o--------------------------------|---------------------------------|
G| |-6-6-6-6-6-6-6-6-6-6-6-6-6-6-6-6-|---------------------------------|
D| |-6-6-6-6-6-6-6-6-6-6-6-6-6-6-6-6-|-7-7-7-7-7-7-7-7-7-7-7-7-7-7-7-7-|
A| |o4-4-4-4-4-4-4-4-4-4-4-4-4-4-4-4-|-7-7-7-7-7-7-7-7-7-7-7-7-7-7-7-7-|
E| |---------------------------------|-5-5-5-5-5-5-5-5-5-5-5-5-5-5-5-5-|
  1.  Hey let go of                    all you know                    |
  2.  And say out loud                 these words I found             |
                                                                       |
Guitar 2                                                               |
e| |---------------------------------|---------------------------------|
B| |o--------------------------------|---------------------------------|
G| |-9-9-9-9-9-9-9-9-9-9-9-9-9-9-9-9-|-9-9-9-9-9-9-9-9-9-9-9-9-9-9-9-9-|
D| |-x-x-x-x-x-x-x-x-x-x-x-x-x-x-x-x-|-x-x-x-x-x-x-x-x-x-x-x-x-x-x-x-x-|
A| |o7-7-7-7-7-7-7-7-7-7-7-7-7-7-7-7-|-7-7-7-7-7-7-7-7-7-7-7-7-7-7-7-7-|
E| |---------------------------------|---------------------------------|

Guitar 1
e| |---------------------------------|---------------------------------|
B| |---------------------------------|--------------------------------o|
G| |---------------------------------|---------------------------------|
D| |-9-9-9-9-9-9-9-9-9-9-9-9-9-9-9-9-|-7-7-7-7-7-7-7-7-7-7-7-7-7-7-7-7-|
A| |-9-9-9-9-9-9-9-9-9-9-9-9-9-9-9-9-|-7-7-7-7-7-7-7-7-7-7-7-7-7-7-7-7o|
E| |-7-7-7-7-7-7-7-7-7-7-7-7-7-7-7-7-|-5-5-5-5-5-5-5-5-5-5-5-5-5-5-5-5-|
  1. And get fired away now            What have you got to lose       |
  2. I'll be back when you come down   I'll be waiting for you         |
                                                                       |
Guitar 2                                                               |
e| |---------------------------------|---------------------------------|
B| |---------------------------------|--------------------------------o|
G| |-8-8-8-8-8-8-8-8-8-8-8-8-8-8-8-8-|-9-9-9-9-9-9-9-9-9-9-9-9-9-9-9-9-|
D| |-x-x-x-x-x-x-x-x-x-x-x-x-x-x-x-x-|-x-x-x-x-x-x-x-x-x-x-x-x-x-x-x-x-|
A| |-6-6-6-6-6-6-6-6-6-6-6-6-6-6-6-6-|-7-7-7-7-7-7-7-7-7-7-7-7-7-7-7-7o|
E| |---------------------------------|---------------------------------|

 _________________
|Verse (1:12-1:38)|
|_________________|

Guitar 1
e| |---------------------------------|---------------------------------|
B| |---------------------------------|---------------------------------|
G| |---------------------------------|---------------------------------|
D| |---------------------------------|---------------------------------|
A| |-4-4-4-4-4-4-4-4-4-4-4-4-4-4-4-4-|-0-0-0-0-0-0-0-0-0-0-0-0-0-0-0-0-|
E| |---------------------------------|---------------------------------|
     The night life, the high life she just wants a good life so       |
                                                                       |
Guitar 2                                                               |
e| |---------------------------------|---------------------------------|
B| |-----0-------0-------0-------0---|-----0-------0-------0-------0---|
G| |-----4-------4-------4-------4---|-----4-------4-------4-------4---|
D| |-2-2-----2-2-----2-2-----2-2-----|-2-2-----2-2-----2-2-----2-2-----|
A| |-4-4-----4-4-----4-4-----4-4-----|-4-4-----4-4-----4-4-----4-4-----|
E| |---------------------------------|---------------------------------|

Guitar 1
e| |---------------------------------|---------------------------------|
B| |---------------------------------|---------------------------------|
G| |---------------------------------|---------------------------------|
D| |---------------------------------|---------------------------------|
A| |---------------------------------|-0-0-0-0-0-0-0-0-0-0-0-0-0-0-0-0-|
E| |-2-2-2-2-2-2-2-2-4-4-4-4-4-4-4-4-|---------------------------------|
     Someone remembers her             too                       but   |
                                                                       |
Guitar 2                                                               |
e| |---------------------------------|---------------------------------|
B| |-----0-------0-------0-------0---|-----0-------0-------0-------0---|
G| |-----4-------4-------4-------2---|-----2-------4-------4-------4---|
D| |-2-2-----2-2-----2-2-----2-2-----|-2-2-----2-2-----2-2-----2-2-----|
A| |-4-4-----4-4-----4-4-----4-4-----|-4-4-----4-4-----4-4-----4-4-----|
E| |---------------------------------|---------------------------------|

Guitar 1
e| |---------------------------------|---------------------------------|
B| |---------------------------------|---------------------------------|
G| |---------------------------------|---------------------------------|
D| |---------------------------------|---------------------------------|
A| |-4-4-4-4-4-4-4-4-4-4-4-4-4-4-4-4-|---------------------------------|
E| |---------------------------------|-0-0-0-0-0-0-0-0-0-0-0-0-0-0-0-0-|
     Somewhere she heard there was     some place to go when you       |
                                                                       |
Guitar 2                                                               |
e| |---------------------------------|---------------------------------|
B| |-----0-------0-------0-------0---|-----0-------0-------0-------0---|
G| |-----4-------4-------4-------4---|-----4-------4-------4-------4---|
D| |-2-2-----2-2-----2-2-----2-2-----|-2-2-----2-2-----2-2-----2-2-----|
A| |-4-4-----4-4-----4-4-----4-4-----|-4-4-----4-4-----4-4-----4-4-----|
E| |---------------------------------|---------------------------------|

Guitar 1
e| |---------------------------------|---------------------------------|
B| |o--------------------------------|--------------------------------o|
G| |---------------------------------|---------------------------------|
D| |---------------------------------|---------------------------------|
A| |o--------------------------------|-0-0-0-0-0-0-0-0-0-0-0-0-0-0-0-0o|
E| |-2-2-2-2-2-2-2-2-4-4-4-4-4-4-4-4-|---------------------------------|
  1. Die when you     live like we     do                              |
  2. Die when you     live like we     do                              |
                                                                       |
Guitar 2                                                               |
e| |---------------------------------|---------------------------------|
B| |o----0-------0-------0-------0---|-----0-------0-------0-------0--o|
G| |-----4-------4-------4-------4---|-----4-------4-------4-------4---|
D| |-2-2-----2-2-----2-2-----2-2-----|-2-2-----2-2-----2-2-----2-2-----|
A| |o4-4-----4-4-----4-4-----4-4-----|-4-4-----4-4-----4-4-----4-4----o|
E| |---------------------------------|---------------------------------|
                                                                       |
                                                                       |
Guitar 3                                                               |
e| |---------------------------------|---------------------------------|
B| |o--------------------------------|--------------------------------o|
G| |12~-------------16~--------------|18~------------------------------|
D| |---------------------------------|---------------------------------|
A| |10~-------------14~--------------|16~-----------------------------o|
E| |---------------------------------|---------------------------------|

 __________________
|Chorus (1:39-2:00)|
|__________________|

Guitar 1
e| |---------------------------------|---------------------------------|
B| |o--------------------------------|---------------------------------|
G| |-6-6-6-6-6-6-6-6-6-6-6-6-6-6-6-6-|---------------------------------|
D| |-6-6-6-6-6-6-6-6-6-6-6-6-6-6-6-6-|-7-7-7-7-7-7-7-7-7-7-7-7-7-7-7-7-|
A| |o4-4-4-4-4-4-4-4-4-4-4-4-4-4-4-4-|-7-7-7-7-7-7-7-7-7-7-7-7-7-7-7-7-|
E| |---------------------------------|-5-5-5-5-5-5-5-5-5-5-5-5-5-5-5-5-|
  1.  Hey let go of                    all you know                    |
  2.  And say out loud                 these words I found             |
                                                                       |
Guitar 2                                                               |
e| |---------------------------------|---------------------------------|
B| |o--------------------------------|---------------------------------|
G| |-9-9-9-9-9-9-9-9-9-9-9-9-9-9-9-9-|-9-9-9-9-9-9-9-9-9-9-9-9-9-9-9-9-|
D| |-x-x-x-x-x-x-x-x-x-x-x-x-x-x-x-x-|-x-x-x-x-x-x-x-x-x-x-x-x-x-x-x-x-|
A| |o7-7-7-7-7-7-7-7-7-7-7-7-7-7-7-7-|-7-7-7-7-7-7-7-7-7-7-7-7-7-7-7-7-|
E| |---------------------------------|---------------------------------|

Guitar 1
e| |---------------------------------|---------------------------------|
B| |---------------------------------|--------------------------------o|
G| |---------------------------------|---------------------------------|
D| |-9-9-9-9-9-9-9-9-9-9-9-9-9-9-9-9-|-7-7-7-7-7-7-7-7-7-7-7-7-7-7-7-7-|
A| |-9-9-9-9-9-9-9-9-9-9-9-9-9-9-9-9-|-7-7-7-7-7-7-7-7-7-7-7-7-7-7-7-7o|
E| |-7-7-7-7-7-7-7-7-7-7-7-7-7-7-7-7-|-5-5-5-5-5-5-5-5-5-5-5-5-5-5-5-5-|
  1. And get fired away now            What have you got to lose       |
  2. I'll be back when you come down   I'll be waiting for you         |
                                                                       |
Guitar 2                                                               |
e| |---------------------------------|---------------------------------|
B| |---------------------------------|--------------------------------o|
G| |-8-8-8-8-8-8-8-8-8-8-8-8-8-8-8-8-|-9-9-9-9-9-9-9-9-9-9-9-9-9-9-9-9-|
D| |-x-x-x-x-x-x-x-x-x-x-x-x-x-x-x-x-|-x-x-x-x-x-x-x-x-x-x-x-x-x-x-x-x-|
A| |-6-6-6-6-6-6-6-6-6-6-6-6-6-6-6-6-|-7-7-7-7-7-7-7-7-7-7-7-7-7-7-7-7o|
E| |---------------------------------|---------------------------------|

 ________________
|Solo (2:01-2:23)|
|________________|

Guitar 1
e| |---------------------------------|---------------------------------|
B| |---------------------------------|---------------------------------|
G| |---------------11-11-------------|----------------9-9--------------|
D| |-/13---9-----11~~~~~~--------/13-|---9-----------------------------|
A| |----------11---------------------|------11---9/11~~~~~-------------|
E| |---------------------------------|---------------------------------|
                                                                       |
Guitar 2                                                               |
e| |---------------------------------|---------------------------------|
B| |---------------------------------|---------------------------------|
G| |-6-6-6-6-6-6-6-6-6-6-6-6-6-6-6-6-|---------------------------------|
D| |-6-6-6-6-6-6-6-6-6-6-6-6-6-6-6-6-|-9-9-9-9-9-9-9-9-9-9-9-9-9-9-9-9-|
A| |-4-4-4-4-4-4-4-4-4-4-4-4-4-4-4-4-|-9-9-9-9-9-9-9-9-9-9-9-9-9-9-9-9-|
E| |---------------------------------|-7-7-7-7-7-7-7-7-7-7-7-7-7-7-7-7-|

Guitar 1
e| |---------------------------------|---------------------12*---------|
B| |------------------------------9br|----------------12*--------------|
G| |13-14-13-11-13-11-9-11b-11r-11---|11-9-----------------------------|
D| |---------------------------------|-----11-9-11/14------------------|
A| |---------------------------------|---------------------------------|
E| |---------------------------------|---------------------------------|
                                                                       |
Guitar 2                                                               |
e| |---------------------------------|---------------------------------|
B| |---------------------------------|---------------------------------|
G| |---------------------------------|---------------------------------|
D| |-7-7-7-7-7-7-7-7-7-7-7-7-7-7-7-7-|-2-2-2-2-2-2-2-2-2-2-2-2-2-2-2-2-|
A| |-7-7-7-7-7-7-7-7-7-7-7-7-7-7-7-7-|-2-2-2-2-2-2-2-2-2-2-2-2-2-2-2-2-|
E| |-5-5-5-5-5-5-5-5-5-5-5-5-5-5-5-5-|-0-0-0-0-0-0-0-0-0-0-0-0-0-0-0-0-|

Guitar 1 (TP)
e| |---------------------------------|---------------------------------|
B| |o-------------------------------o|---------------------------------|
G| |---------------------------------|----11----------11---------------|
D| |13-11-14-11-13-11-13-11-14-11-13-|1413--1314131413--1113141311-9---|
A| |o-------------------------------o|------------------------------11-|
E| |---------------------------------|---------------------------------|
  1.                                                                   |
  2.                                                                   |
                                                                       |
Guitar 2                                                               |
e| |---------------------------------|---------------------------------|
B| |---------------------------------|---------------------------------|
G| |-6-6-6-6-6-6-6-6-6-6-6-6-6-6-6-6-|---------------------------------|
D| |-6-6-6-6-6-6-6-6-6-6-6-6-6-6-6-6-|-9-9-9-9-9-9-9-9-9-9-9-9-9-9-9-9-|
A| |-4-4-4-4-4-4-4-4-4-4-4-4-4-4-4-4-|-9-9-9-9-9-9-9-9-9-9-9-9-9-9-9-9-|
E| |---------------------------------|-7-7-7-7-7-7-7-7-7-7-7-7-7-7-7-7-|

Guitar 1
e| |---------------------------------|---------------------------------|
B| |---------------------------------|---------------------------------|
G| |---------------------------------|----------12-11-12/14~----12-11--|
D| |11br-11br------------------------|---------------------------------|
A| |----------12-9------9*---------9-|-10-10-10------------------------|
E| |---------------12-9----12-9-12---|---------------------------------|
                                                                       |
Guitar 2                                                               |
e| |---------------------------------|---------------------------------|
B| |---------------------------------|---------------------------------|
G| |---------------------------------|-5-5-5-5-5-5-5-5-5-5-5-5-5-5-5-5-|
D| |-7-7-7-7-7-7-7-7-7-7-7-7-7-7-7-7-|-5-5-5-5-5-5-5-5-5-5-5-5-5-5-5-5-|
A| |-7-7-7-7-7-7-7-7-7-7-7-7-7-7-7-7-|-3-3-3-3-3-3-3-3-3-3-3-3-3-3-3-3-|
E| |-5-5-5-5-5-5-5-5-5-5-5-5-5-5-5-5-|---------------------------------|

 __________________
|Bridge (2:23-2:33)|
|__________________|

Guitar 1
e| |---------------------------------|---------------------------------|
B| |---------------------------------|---------------------------------|
G| |-----------------6-6-6-6-6-6-6-6-|---------------------------------|
D| |-6-6-6-6-6-6-6-6-6-6-6-6-6-6-6-6-|-7-7-7-7-7-7-7-7-7-7-7-7-7-7-7-7-|
A| |-4-4-4-4-4-4-4-4-4-4-4-4-4-4-4-4-|-7-7-7-7-7-7-7-7-7-7-7-7-7-7-7-7-|
E| |---------------------------------|-5-5-5-5-5-5-5-5-5-5-5-5-5-5-5-5-|
      Hey let go of                    all you know                    |
                                                                       |
Guitar 2                                                               |
e| |---------------------------------|---------------------------------|
B| |---------------------------------|---------------------------------|
G| |-----------------9-9-9-9-9-9-9-9-|-9-9-9-9-9-9-9-9-9-9-9-9-9-9-9-9-|
D| |-----------------x-x-x-x-x-x-x-x-|-x-x-x-x-x-x-x-x-x-x-x-x-x-x-x-x-|
A| |-----------------7-7-7-7-7-7-7-7-|-7-7-7-7-7-7-7-7-7-7-7-7-7-7-7-7-|
E| |---------------------------------|---------------------------------|

Guitar 1
e| |---------------------------------|---------------------------------|
B| |---------------------------------|---------------------------------|
G| |---------------------------------|---------------------------------|
D| |-9-9-9-9-9-9-9-9-9-9-9-9-9-9-9-9-|-7-7-7-7-7-7-7-7-7-7-7-7-7-7-7-7-|
A| |-9-9-9-9-9-9-9-9-9-9-9-9-9-9-9-9-|-7-7-7-7-7-7-7-7-7-7-7-7-7-7-7-7-|
E| |-7-7-7-7-7-7-7-7-7-7-7-7-7-7-7-7-|-5-5-5-5-5-5-5-5-5-5-5-5-5-5-5-5-|
     And get fired away now            What have you got to lose       |
                                                                       |
Guitar 2                                                               |
e| |---------------------------------|---------------------------------|
B| |---------------------------------|---------------------------------|
G| |-8-8-8-8-8-8-8-8-8-8-8-8-8-8-8-8-|-9-9-9-9-9-9-9-9-9-9-9-9-9-9-9-9-|
D| |-x-x-x-x-x-x-x-x-x-x-x-x-x-x-x-x-|-x-x-x-x-x-x-x-x-x-x-x-x-x-x-x-x-|
A| |-6-6-6-6-6-6-6-6-6-6-6-6-6-6-6-6-|-7-7-7-7-7-7-7-7-7-7-7-7-7-7-7-7-|
E| |---------------------------------|---------------------------------|

 __________________
|Chorus (2:34-3:07)|
|__________________|

Guitar 1
e| |---------------------------------|---------------------------------|
B| |o--------------------------------|---------------------------------|
G| |-6-6-6-6-6-6-6-6-6-6-6-6-6-6-6-6-|---------------------------------|
D| |-6-6-6-6-6-6-6-6-6-6-6-6-6-6-6-6-|-7-7-7-7-7-7-7-7-7-7-7-7-7-7-7-7-|
A| |o4-4-4-4-4-4-4-4-4-4-4-4-4-4-4-4-|-7-7-7-7-7-7-7-7-7-7-7-7-7-7-7-7-|
E| |---------------------------------|-5-5-5-5-5-5-5-5-5-5-5-5-5-5-5-5-|
  1.  And say out loud                 these words I found             |
                                                                       |
  2.  Hey let go of                    all you know                    |
     (Accident out on the              highway to somewhere they)      |
                                                                       |
  3.  And say out loud                 these words I found             |
     (Rescuers working to              clean up the crashes be)        |
                                                                       |
Guitar 2                                                               |
e| |---------------------------------|---------------------------------|
B| |o--------------------------------|---------------------------------|
G| |-9-9-9-9-9-9-9-9-9-9-9-9-9-9-9-9-|-9-9-9-9-9-9-9-9-9-9-9-9-9-9-9-9-|
D| |-x-x-x-x-x-x-x-x-x-x-x-x-x-x-x-x-|-x-x-x-x-x-x-x-x-x-x-x-x-x-x-x-x-|
A| |o7-7-7-7-7-7-7-7-7-7-7-7-7-7-7-7-|-7-7-7-7-7-7-7-7-7-7-7-7-7-7-7-7-|
E| |---------------------------------|---------------------------------|

Guitar 1
e| |---------------------------------|---------------------------------|
B| |---------------------------------|--------------------------------o|
G| |---------------------------------|---------------------------------|
D| |-9-9-9-9-9-9-9-9-9-9-9-9-9-9-9-9-|-7-7-7-7-7-7-7-7-7-7-7-7-7-7-7-7-|
A| |-9-9-9-9-9-9-9-9-9-9-9-9-9-9-9-9-|-7-7-7-7-7-7-7-7-7-7-7-7-7-7-7-7o|
E| |-7-7-7-7-7-7-7-7-7-7-7-7-7-7-7-7-|-5-5-5-5-5-5-5-5-5-5-5-5-5-5-5-5-|
  1. I'll be back when you come down   I'll be waiting for you         |
                                                                       |
  2. And get fired away now            What have you got to lose       |
    (tell us         about when we're  young)                          |
                                                                       |
  3. I'll be back when you come down   I'll be waiting for you         |
    (-fore she can   see what they've  done)                           |
                                                                       |
Guitar 2                                                               |
e| |---------------------------------|---------------------------------|
B| |---------------------------------|--------------------------------o|
G| |-8-8-8-8-8-8-8-8-8-8-8-8-8-8-8-8-|-9-9-9-9-9-9-9-9-9-9-9-9-9-9-9-9-|
D| |-x-x-x-x-x-x-x-x-x-x-x-x-x-x-x-x-|-x-x-x-x-x-x-x-x-x-x-x-x-x-x-x-x-|
A| |-6-6-6-6-6-6-6-6-6-6-6-6-6-6-6-6-|-7-7-7-7-7-7-7-7-7-7-7-7-7-7-7-7o|
E| |---------------------------------|---------------------------------|

 _________________
|Outro (3:07-4:39)|
|_________________|

Guitar 1
e| |---------------------------------|---------------------------------|
B| |-9---9---9---910-7---7---7---7-9-|-5---5---5---5h7-9---9---9---910-|
G| |---9---9---9-------9---9---9-----|---6---6---6-------9---9---9-----|
D| |---------------------------------|---------------------------------|
A| |---------------------------------|---------------------------------|
E| |---------------------------------|---------------------------------|
                                                                       |
Guitar 2                                                               |
e| |---------------------------------|---------------------------------|
B| |---------------------------------|---------------------------------|
G| |---------------------------------|---------------------------------|
D| |-2~------------------------------|-----------------2~--------------|
A| |-2~------------------------------|-----------------2~--------------|
E| |-0~------------------------------|-----------------0~--------------|

Guitar 1
e| |---------------------------------|---------------------------------|
B| |-7---7---7---7-9-5---5---5---5h7-|-9---9---9---910-7---7---7---7-9-|
G| |---9---9---9-------6---6---6-----|---9---9---9-------9---9---9-----|
D| |---------------------------------|---------------------------------|
A| |---------------------------------|---------------------------------|
E| |---------------------------------|---------------------------------|

Guitar 1
e| |---------------------------------|---------------------------------|
B| |-5---5---5---5h7-9---9---9---910-|-7---7---7---7-9-5---5---5---5h7-|
G| |---6---6---6-------9---9---9-----|---9---9---9-------6---6---6-----|
D| |---------------------------------|---------------------------------|
A| |---------------------------------|---------------------------------|
E| |---------------------------------|---------------------------------|

Guitar 1
e| |---------------------------------|---------------------------------|
B| |-9---9---9---910-7---7---7---7-9-|-5---5---5---5h7-9---9---9---910-|
G| |---9---9---9-------9---9---9-----|---6---6---6-------9---9---9-----|
D| |---------------------------------|---------------------------------|
A| |---------------------------------|---------------------------------|
E| |---------------------------------|---------------------------------|

Guitar 1
e| |---------------------------------|---------------------------------|
B| |-7---7---7---7-9-5---5---5---5h7-|-9---9---9---910-7---7---7---7-9-|
G| |---9---9---9-------6---6---6-----|---9---9---9-------9---9---9-----|
D| |---------------------------------|---------------------------------|
A| |---------------------------------|---------------------------------|
E| |---------------------------------|---------------------------------|

Guitar 1
e| |---------------------------------|---------------------------------|
B| |-5---5---5---5h7-9---9---9---910-|-7---7---7---7-9-5---5---5---5h7-|
G| |---6---6---6-------9---9---9-----|---9---9---9-------6---6---6-----|
D| |---------------------------------|---------------------------------|
A| |---------------------------------|---------------------------------|
E| |---------------------------------|---------------------------------|


 ________
| Legend |
|________|

~  - Sustain
b  - Bend
r  - Release bend
x  - Mute
h  - Hammer-on
p  - Pull-off
/  - Slide up
  - Slide down
*  - Palm mute
9* - Harmonics (natural or artificial)
TP - Tremolo pick
 _______
| Notes |
|_______|

This song has been the hardest song to tab for me so far. There's too much going on in
outro, I just didn't feel like tabbing all of it now. I will totally finish guitar 3 over
weekend if I feel like it. I didn't do pull-offs and hammer-ons in the solo because 
is just not enough space. There is a very, and I stress very, soft riff in the solo
is too soft and fast so I didn't include it in here. It in the middle in the second bar 
there's tremolo picking.

 
 
Yellowcard - Holly Wood Died Tab :: indexed at Ultimate Guitar.
Holly Wood Died tabs @ 911Tabs

About the artist behind Holly Wood Died Tab:

Yellowcard is an alternative rock multi-platinum selling band from Jacksonville, Florida. Their music features a rare contribution to the genre, incorporating the use of a violin.

The band is not currently active and is on a self-described "indefinite hiatus."

Indexed at Wikipedia.

Show us your talent, perform Holly Wood Died Tab!

Here you can post a video or audio performance. Tell me more ...
Where can we find your performance? Tell me more ...
Your comment:
Please, log in to post your performance.