Artists by letter: A B C D E F G H I J K L M N O P Q R S T U V W X Y Z 0-9

 
El Scorcho Tab
I am currently working on the guitar pro version for this song.
This is a correct version I promise. It is tuned down to Eb, however, it sounds fine 
tuning down. God bless.

Intro (Tempo 75)
  Riff A
e|------------------------------------------|
B|----------2v-----------------7v-----------|
G|------------------------------------------|
D|------2-------2s----------7--------7s-----|
A|---0------------------5-------------------|
E|------------------------------------------|

e|------------------------------------------|
B|----------2v-----------------7b-----------|
G|------------------------------------------|
D|------2-------2s----------7---------------|
A|---0------------------5-------------------|
E|------------------------------------------|
  Riff B
e|------------------------------------------|
B|----------2v-----------------7v-----------|
G|------------------------------------------|
D|------2-------2s----------7--------7s-----|
A|---0------------------5-------------------|
E|------------------------------------------|
  Riff C
e|------------------------------------------|
B|----------2v------------------6-----------|
G|------------------------------------------|
D|------2-------2s----------7---------------|
A|---0------------------5-------------------|
E|------------------------------------------|


Verse
  Riff B
e|------------------------------------------|
B|----------2v-----------------7v-----------|
G|------------------------------------------|(X3)
D|------2-------2s----------7--------7s-----|
A|---0------------------5-------------------|
E|------------------------------------------|
  Riff C
e|------------------------------------------|
B|----------2v------------------6-----------|
G|------------------------------------------|
D|------2-------2s----------7---------------|
A|---0------------------5-------------------|
E|------------------------------------------|
  Riff B
e|------------------------------------------|
B|----------2v-----------------7v-----------|
G|------------------------------------------|(X2)
D|------2-------2s----------7--------7s-----|
A|---0------------------5-------------------|
E|------------------------------------------|

~Why you wanna go and do me like that?~
~Come down on the street and dance with me.~

Chorus
  Rhy. Fig 1
e|------------------------------------------|
B|----------2v-----------------7v-----------|
G|------------------------------------------|(X3)
D|------2-------2s----------7--------7s-----|
A|---0------------------5-------------------|
E|------------------------------------------|

e|------------------------------------------|
B|----------2v-----------------9v-----------|
G|------------------------------------------|
D|------2-------2s----------9--------9s-----|
A|---0------------------7-------------------|
E|------------------------------------------|

e|------------------------------------------|
B|----------2v-----------------7v-----------|
G|------------------------------------------|(X2)
D|------2-------2s----------7--------7s-----|
A|---0------------------5-------------------|
E|------------------------------------------|

e|------------------------------------------|
B|----------2v-----------------9v-----------|
G|------------------------------------------|
D|------2-------2s----------9--------9s-----|
A|---0------------------7-------------------|
E|------------------------------------------|

e|--------------------------8-------6-------|
B|----------2---------------7-------5-------|
G|--------------------------7-------5-------|
D|------2-------2s------7---7---5---5-------|
A|---0------------------5-------3-----------|
E|----------------------5-------3-----------|

Verse
Chorus

Bridge  (tempo speeds up to 150)
  Rhy. Fig 2
e|--5-------7------------|
B|--5-------7------------|
G|--6-(16X)-9-(16X)------|(2 Times)
D|--7-------9------------|
A|--7-------9------------|
E|--5-------7------------|

(tempo back to 75)
e|--5------10------------|
B|--5------10------------|
G|--6-(4X)-11-(4X)-------|
D|--7------12------------|
A|--7------12------------|
E|--5------10------------|

e|--7-------7------------|
B|--7-------9------------|
G|--7-(6X)--9-(4X)-------|
D|--9-------9------------|
A|--9-------7------------|
E|--7-------7------------|
                        and mabye your scared
e|------------------------------------------|
B|----------2v-----------------7v-----------|
G|------------------------------------------|(X3)
D|------2-------2s----------7--------7s-----|
A|---0------------------5-------------------|
E|------------------------------------------|
  say                  "I'm falling for you."
e|------------------------------------------|
B|----------2v-------------------9----------|
G|------------------------------------------|
D|------2-------2s----------9---------------|
A|---0------------------7-------------------|
E|------------------------------------------|

Guitar Solo
e|--7------9---------------14---12v-|
B|----------------10--12------------|
G|------------10--------------------|
D|----------------------------------|
A|----------------------------------|
E|----------------------------------|

e|--19--17---16h-17-------21----------19h-21-|
B|------------------17v-------14---17--------|
G|-------------------------------------------|
D|-------------------------------------------|
A|-------------------------------------------|
E|-------------------------------------------|

Verse
Chorus (2 times and end)

 
 
Weezer - El Scorcho Tab :: indexed at Ultimate Guitar.
El Scorcho tabs @ 911Tabs

About the artist behind El Scorcho Tab:

Weezer (IPA: /ˈwizɚ/) is a Grammy nominated American rock band from Los Angeles, California formed in 1992 by Rivers Cuomo (lead vocals, guitar), Patrick Wilson (drums, backing vocals), Matt Sharp (bass, backing vocals), and Jason Cropper (guitar, backing vocals), with the last two replaced by Mikey Welsh and Brian Bell, respectively. Mikey Welsh was later replaced with Scott Shriner.[1] They have released six full-length albums, three EPs, and a DVD; the first album was later re-released as a remastered deluxe edition in 2004. Weezer recently released their sixth album on June 3, 2008. They have sold more than 7 million records to date in the US.[2]

Indexed at Wikipedia.

Show us your talent, perform El Scorcho Tab!

Here you can post a video or audio performance. Tell me more ...
Where can we find your performance? Tell me more ...
Your comment:
Please, log in to post your performance.