Artists by letter: A B C D E F G H I J K L M N O P Q R S T U V W X Y Z 0-9

 
Pre-ignition Tab
---------------------------------------------------------------------------
			   PRE-IGNITION - Voivod
---------------------------------------------------------------------------

Tabbed by: Greg Frisenda
Email: [email protected]

Tuning: Standard E

Riff A1 - First Verse
e|--------------------------------------|
B|-6-6-----------------6-6--------------|
G|-8-8--10-10-10-10-10-8-8--------9-----|
D|-7-7--9--9--9--9--9--7-7------9---9---|
A|-6-6--8--8--8--8--8--6-6---8-------8--|
E|------7--7--7--7--7-------------------|

Riff A2 - First Verse Break
e|-12-12-12-12-12-12-13-13-13-13-13-13-17-17-17-17-17-17-13-13-13-13-13-13|
B|-12-12-12-12-12-12-13-13-13-13-13-13-17-17-17-17-17-17-13-13-13-13-13-13|
G|-9--9--9--9--9--9--10-10-10-10-10-10-14-14-14-14-14-14-10-10-10-10-10-10|
D|------------------------------------------------------------------------|
A|------------------------------------------------------------------------|
E|------------------------------------------------------------------------|

Repeat Riff A1
Repeat Riff A2
Repeat Riff A1
Repeat Riff A2

Riff B - Pre-Chorus - 2x
e|------------------------------------------------------------------------|
B|-14-14-14-14-14-14-14-12-10-14-14-14-14-14-14-14-12-10-14-14-14-14-14-14|
G|-12-12-12-12-12-12-12-10-8--12-12-12-12-12-12-12-10-8--12-12-12-12-12-12|
D|-11-11-11-11-11-11-11-9--7--11-11-11-11-11-11-11-9--7--11-11-11-11-11-11|
A|------------------------------------------------------------------------|
E|------------------------------------------------------------------------|

e|------------------------|
B|-14--12-10-12-10-8--10--|
G|-12--10-8--10-8--6--8---|
D|-11--9--7--9--7--5--7---|
A|------------------------|
E|------------------------|

Riff C                               2x                                 2x 

e|-------------------------------------|----------------------------------|
B|-------------------------------------|----------------------------------|
G|-8--8-8-8-8--10-8--8-8--10--8--12--8-|-5-5-5-5-5-7--5--5-5--7--5--9--5--|
D|-7--7-7-7-7--7--7--7-7--7---7--7---7-|-4-4-4-4-4-4--4--4-4--4--4--4--4--|
A|-------------------------------------|----------------------------------|
E|-------------------------------------|----------------------------------|

Riff D
e|--------------------------|
B|--------------------------|
G|-------------------5--8---|
D|-------------4--7---------|
A|-5--0--3--6---------------|
E|--------------------------|

Riff E - 2nd Pre-Chorus
e|------------------------------------------------------------------------|
B|-10--7--10--7--10--11---10--11--10--7--6--7--10--11--10--11--10--7--6--7|
G|-11--8--11--8--11--12---11--12--11--8--7--8--11--12--11--12--11--8--7--8|
D|------------------------------------------------------------------------|
A|------------------------------------------------------------------------|
E|------------------------------------------------------------------------|

e|--------------13--13--13--11-11-11-------------------------|
B|-10--11--13---13--13--13--11-11-11-9---9---9---7--7--7--6--|
G|-11--12--14---10--10--10--8--8--8--10--10--10--8--8--8--7--|
D|-----------------------------------10--10--10--8--8--8--7--|
A|-----------------------------------------------------------|
E|-----------------------------------------------------------|

Riff F - Chorus - 2x
e|--------------------------------------------------------|
B|-12--10--12---10--12--13--12----10--12--13--12--10--9---|
G|-10--10--10---10--10--10--10----10--10--10--10--10--9---|
D|-10--10--10---10--10--10--10----10--10--10--10--10--9---|
A|--------------------------------------------------------|
E|--------------------------------------------------------|

Riff G - Chorus - 4x
e|-------------------------------|
B|-------------------------------|
G|-8---7---8---7---8-------------|
D|-7---7---7---7---7------7------|
A|-6-------6-------6---8-----8---|
E|-------------------------------|

Riff H - Chorus - 2x
e|-7---5--------9---5-------7---5-------9---5------|
B|-6---4----6---8---4---6---6---4---6---8---4---6--|
G|----------4-----------4-----------4-----------4--|
D|-------------------------------------------------|
A|-------------------------------------------------|
E|-------------------------------------------------|

Riff I - Chorus - 2x
e|-5----3--5----3--5----3--5--7--10--7---|
B|-4----2--4----2--4----2--4--6--9---6---|
G|---------------------------------------|
D|---------------------------------------|
A|---------------------------------------|
E|---------------------------------------|

Riff J                            bass flange break 1
e|--------0-------------0------------------------|
B|-10--10----9--7--9--9----7--5--4---------------|
G|-8---------7--5--7-------5--3--2---------------|
D|-----------------------------------------------|
A|-----------------------------------------------|
E|-----------------------------------------------|

Riff K - Interlude 1
e|------------------------------------------------------------------------|
B|-1-----------1-----4-------------1-----4-------------4-----4-----4-----4|
G|-0-0-0-0-0-0-0-0-0-3-0-0-0-0-0-0-0-0-0-3-0-0-0-0-0-0-3-0-0-3-0-0-3-0-0-3|
D|------------------------------------------------------------------------|
A|------------------------------------------------------------------------|
E|------------------------------------------------------------------------|

e|------------------------------------------------------------------------|
B|-----7-------------7---7---7-9-7-------------7---7---7-9-7-9-9-7-9-9-7-9|
G|-0-0-6-0-0-0-0-0-0-6-0-6-0-6-8-6-0-0-0-0-0-0-6-0-6-0-6-8-6-8-8-6-8-8-6-8|
D|------------------------------------------------------------------------|
A|------------------------------------------------------------------------|
E|------------------------------------------------------------------------|

e|---------14-14-14-14-14-14-14-14-14-14-14-14-14-14-14-14-14-14-14-14-14-|
B|-9-7-9-9-13-13-13-13-13-13-13-13-13-13-13-13-13-13-13-13-13-13-13-13-13-|
G|-8-6-8-8-11-11-11-11-11-11-11-11-11-11-11-11-11-11-11-11-11-11-11-11-11-|
D|------------------------------------------------------------------------|
A|------------------------------------------------------------------------|
E|------------------------------------------------------------------------|
                                                      bass flange break 2
e|-14-14-14--14-14-16-16-14-14-16-16-14-14-16-16-17-----------------------|
B|-13-13-13--13-13-15-15-13-13-15-15-13-13-15-15-16-----------------------|
G|-11-11-11--11-11-13-13-11-11-13-13-11-11-13-13-14-----------------------|
D|------------------------------------------------------------------------|
A|------------------------------------------------------------------------|
E|------------------------------------------------------------------------|

Riff L - Interlude 2
e|-------------------5-----------------5-----5-----5-----5-----8----------|
B|-7-----------7-----5-----------7-----5-----5-----5-----5-----8----------|
G|-6-6-6-6-6-6-6-6-6---6-6-6-6-6-6-6-6---6-6---6-6---6-6---6-6---6-6-6-6-6|
D|------------------------------------------------------------------------|
A|------------------------------------------------------------------------|
E|------------------------------------------------------------------------|

e|-8---8---8-10-8-----------8---8---8-10-8-10-10-8-10-10-8-10-10-8-10-10--|
B|-8---8---8-10-8-----------8---8---8-10-8-10-10-8-10-10-8-10-10-8-10-10--|
G|---6---6--------6-6-6-6-6---6---6---------------------------------------|
D|------------------------------------------------------------------------|
A|------------------------------------------------------------------------|
E|------------------------------------------------------------------------|

e|-13-13-13-13-13-13-13-13-13-13-13-13-13-13-13-13-13-13-13-13-13-13-13-13|
B|-13-13-13-13-13-13-13-13-13-13-13-13-13-13-13-13-13-13-13-13-13-13-13-13|
G|-11-11-11-11-11-11-11-11-11-11-11-11-11-11-11-11-11-11-11-11-11-11-11-11|
D|------------------------------------------------------------------------|
A|------------------------------------------------------------------------|
E|------------------------------------------------------------------------|

Riff M - Bridge
e|-13--11--13--11-----13--11--13--11-----13--11--13--11---11-11-11---13-11|
B|-13--11--13--11-----13--11--13--11-----13--11--13--11---11-11-11---13-11|
G|-12--11--12--11-----12--11--12--11-----12--11--12--11---11-11-11---12-11|
D|------------------------------------------------------------------------|
A|------------------------------------------------------------------------|
E|------------------------------------------------------------------------|

e|-13-11----|
B|-13-11----|
G|-12-11----|
D|----------|
A|----------|
E|----------|

Solo (*=full bend)
   *  *  *   *  *  * (11 only)                   *
e|-8--8--8---8--8--8----11--8-11-8----8-------------------------------|
B|-11-11-11--11-11-11--------------11---11-8-7------------------------|
G|-----------------------------------------------10---8-10-8----8-10--|
D|-----------------------------------------------------------10-------|
A|--------------------------------------------------------------------|
E|--------------------------------------------------------------------|
   *                     * (hold 10, release after 11)  * hold 18 *
e|---------------------------------------------------------18-18----18-18-|
B|--------------------------11--------------------------18-------18-------|
G|-10---8-10-8----8-10---10-----10--8-10-8----8---------------------------|
D|-------------10--------------------------10-----------------------------|
A|------------------------------------------------------------------------|
E|------------------------------------------------------------------------|
                                          * hold 18 *
e|-------------------------------------------18-18----18-18---------------|
B|-16-18-16----16-------------------------18-------18--------16-18-16-----|
G|----------17----17-17--15-17-15-------------------------------------17--|
D|--------------------------------17-16-----------------------------------|
A|------------------------------------------------------------------------|
E|------------------------------------------------------------------------|

e|---------------------------|
B|-16------------------------|
G|----17-17--15-17-15--------|
D|--------------------17-16--|
A|---------------------------|
E|---------------------------|

Riff B through Riff G (same as first sequence)

Riff N - End Verse - 3x
e|----------------------------------------------------------|
B|----------------6---4-4-4-4-4-4-4-4-4-4-4-4-4-4-4-4-4-4---|
G|----------------6---4-4-4-4-4-4-4-4-4-4-4-4-4-4-4-4-4-4---|
D|-6---4--6---4-6-6-6-4-4-4-4-4-4-4-4-4-4-4-4-4-4-4-4-4-4---|
A|-5---3--5---3-5---5---------------------------------------|
E|----------------------------------------------------------|

Bass & Drum Break

Riff O - End Verse - 2x
e|-----------------------------------------------------|
B|-----6------5-6-6------------10--------9-10-10-------|
G|---7----7---------7-------11-----11------------11----|
D|-7--------7---------7--11-----------11------------11-|
A|-----------------------------------------------------|
E|-----------------------------------------------------|

End
e|--------------------------12---|
B|-----6------5-6-6---------10---|
G|---7----7---------7---7---11---|
D|-7--------7---------7-----11---|
A|-------------------------------|
E|-------------------------------|


| /  slide up
|   slide down
| h  hammer-on
| p  pull-off
| ~  vibrato
| +  harmonic
| x  Mute note
===========================================================================

 
 
Voivod - Pre-ignition Tab :: indexed at Ultimate Guitar.
Pre-ignition tabs @ 911Tabs
People who played Voivod - Pre-ignition Tab also played these songs by Voivod:
Clouds In My House Tab, Astronomy Domine Tab, Missing Sequences Tab, Nanoman Tab, X-stream Tab, Brain Scan Tab

About the artist behind Pre-ignition Tab:

Voivod is a heavy metal band from Jonquière, Quebec, Canada. Their musical style has changed several times since the bands origin. Starting out as a speed metal band, Voivod has added a mix of progressive metal and thrash metal to try to create their own unique metal style. Despite a number of band member changes over the years and the death of original guitarist Denis "Piggy" d'Amour in 2005, Voivod continues to record and tour their last release being Katorz in 2006.

Indexed at Wikipedia.

Show us your talent, perform Pre-ignition Tab!

Here you can post a video or audio performance. Tell me more ...
Where can we find your performance? Tell me more ...
Your comment:
Please, log in to post your performance.