Artists by letter: A B C D E F G H I J K L M N O P Q R S T U V W X Y Z 0-9

 
Sonata In C Major
#----------------------------------PLEASE NOTE---------------------------------#
#This file is the author's own work and represents their interpretation of the #
#song. You may only use this file for private study, scholarship, or research. #
#------------------------------------------------------------------------------##
From: [email protected]
Date: Tue, 28 Nov 1995 12:28:56 EST
Subject: TAB:Sonata in C Major by Paganini

Sonata in C Major

Nicolo Paganini

I've tried to make every two dashes equal a sixteenth note.  Most
of the song is made of sixteenth notes.  I don't know how fast it's
supposed to be played, so just go wild.

Incomplete measure
E-|-3-------0---------------------------|------------------------0---1--------|
B-|-------------------------------------|1---------------1---3----------------|
G-|---0---0---0---0---------------------|--0---0---0---0---0---0---0---0------|
D-|-----2-------2-----------------------|----2-------2-------2-------2--------|
A-|-3-------3---------------------------|3-------3-------3-------3------------|
E-|-------------------------------------|-------------------------------------|

E-|-----------------1-------------------|-----------------------------0-------|
B-|-3-----------------------3-----------|-0---------------0---1---3-----------|
G-|---0---0---0---0---0---0---0---0-----|---0---0---0---0---0---0---0---0-----|
D-|-----0-------0-------0-------0-------|-----0-------0-------0-------0-------|
A-|-2-------2-------2-------2-----------|-------------------------------------|
E-|-------------------------------------|-3-------3-------3-------3-----------|

E-|-----------------3-------0-----------|-1-------3-1-0---------------0-------|
B-|-1-----------------------------------|---------------3-1-------3-----------|
G-|---0---0---0---0---0---0---0---0-----|-------------------0---0---0---0-----|
D-|-----2-------2-------2-------2-------|---3---3-------------2-------0-------|
A-|-3-------3-------3-------3-----------|-----0-----------3-------2-----------|
E-|-------------------------------------|-1-------1---------------------------|

E-|-------------0-1-3-------0-----------|-1-------3-1-0---------------0-------|
B-|-1-------1-3-------------------------|---------------3-1-------3-----------|
G-|---0---0-----------0---0---0---0-----|-------------------0---0---0---0-----|
D-|-----2---------------2-------2-------|---3---3-------------2-------0-------|
A-|-3-------3-------3-------3-----------|-----0-----------3-------2-----------|
E-|-------------------------------------|-1-------1---------------------------|

E-|-----------3---0---1---0-------------|-----------3---2---0-----------0-----|
B-|-1-------------------------3---1-----|---0---3---------------2---3---------|
G-|-------------------------------------|-------------------------------------|
D-|---------2-------0-------------------|---------2---0-----------------------|
A-|-3-----------3-------3---2---0-------|-----2-----------4---0---2---4-------|
E-|-------------------------------------|-3-----------------------------------|

|triplets|                            |triplets|
E-|-----2-------5-------7------8--7-----|-----5-------5-------7------8--7-----|
B-|---3---3---7---7---8---8--10--8------|---7---7---7---7---8---8--10--8------|
G-|-------------------------------------|-------------------------------------|
D-|-0-------0-------0-------0---0-------|-0-------0-------0-------0---0-------|
A-|-------------------------------------|-------------------------------------|
E-|-------------------------------------|-------------------------------------|

E-|-----5-----------3---3---2-3-5-3-----|-2---0---3-2-3-0-----------0---------|
B-|---7---7-----3-----------------------|-----------------3---3---3---3-1-----|
G-|-------------------------------------|-------------------------------------|
D-|-0-------0---------------------------|-----------------0-------0-----------|
A-|-----------------2-------------------|-3-----------------------------------|
E-|-------------------------------------|-------------------------------------|

E-|-----------------3---3---2-3-5-3-----|-2---0---3-2-3-0---0-----------------|
B-|-1---0---0---3-----------------------|-----------------3---1-0-------------|
G-|-------------------------------------|---------------------------2---------|
D-|-2-----------------------------------|-----------------0-----0-------------|
A-|-----------------2-------------------|-3-----------------------------------|
E-|-------------------------------------|-------------------------------------|

E-|-------3-----3-----------------------|---0---1---2---3-----7-----------7---|
B-|-----3-----0---0---1---2---3---4-----|-------------------------10-8-10-----|
G-|---4---------------------------------|-------------------------------------|
D-|-5-----------------------0---1-------|-2---3---4---5---0-------0-----------|
A-|---------2-------3---4---------------|-------------------------------------|
E-|-------------------------------------|-------------------------------------|

E-|-------3-----3-----------------------|---0---1---2---3-----7---5-7-5-7-----|
B-|-----3-----0---0---1---2---3---4-----|-------------------------------------|
G-|---4---------------------------------|-------------------------------------|
D-|-5-----------------------0---1-------|-2---3---4---5---0-------0-----------|
A-|---------2-------3---4---------------|-------------------------------------|
E-|-------------------------------------|-------------------------------------|

Incomplete measure
E-|-3--------------||-------------------|-------------------------------------|
B-|-3--------------||-3-------0---------|------------------3-------0----------|
G-|-4--------------||-------------------|-0-----------------------------------|
D-|-5--------------||---0---0---0---0---|---0---0---0---0----0---0---0---0----|
A-|----------------||-----2-------2-----|-----2-------2--------2-------2------|
E-|-----3---3------||-3-------3---------|-3-------3--------3-------3----------|

E-|-------------------------------------|-----------------0-------------------|
B-|-----------------3-------0-----------|-------------------------3-----------|
G-|-1-----------------------------------|-1-----------------------------------|
D-|---2---2---2---2---2---2---2---2-----|---2---2---2---2---2---2---2---2-----|
A-|-----2-------2-------2-------2-------|-----2-------2-------2-------2-------|
E-|-0-------0-------0-------0-----------|-0-------0-------0-------0-----------|

E-|-----------------0-------0-1-3-0-----|-3-1-0-1-3-1-------------------------|
B-|-1-----------------------------------|-------------3-1-------0-1-3-0-------|
G-|---2---2---2---2---2---2-------------|-----------------2---2---------------|
D-|-----2-------2-------2---------------|-0-----------------2-----------------|
A-|-0-------0-------0-------0-----------|---------------0---------------------|
E-|-------------------------------------|-----------------------0-------------|

E-|-----------------0-------0-1-3-0-----|-3-1-0-1-3-1-0-----------------------|
B-|-3-1-0-1---0-1-3---------------------|---------------3-1-------0-1-3-0-----|
G-|---------2---------2---2-------------|-------------------2---2-------------|
D-|---------------------2---------------|-0-------------------2---------------|
A-|-0---------------0-------0-----------|-----------------0-------------------|
E-|-------------------------------------|-------------------------0-----------|

E-|-------------5---6-----------6-------|-5-----------------------------------|
B-|-------------------5---5-------------|-----6---------------3-------5-------|
G-|-2-------------------5---------------|---------5---------------------------|
D-|-----------------5-------5-----------|-------------7-----------------------|
A-|-0-----------------------------------|-8---------------1-------3-----------|
E-|-------------------------------------|-------------------------------------|

E-|-------1-----1---3-----------3-------|-1-----------------------------------|
B-|-----1-------------2---2-------------|-----3-------------------------------|
G-|---2-----------------2---------------|---------2-----------3-------6-------|
D-|-3---------------2-------2-----------|-0-----------------------------------|
A-|---------0---------------------------|-------------------------------------|
E-|-------------------------------------|-------------1---3-------5-----------|

E-|-------1-----------------3---1-------|-0-----------------------------------|
B-|-----3-------1---0-------------------|-------------0-----------3---1-------|
G-|---2---------------0---0-------------|---0---0---------2-------------------|
D-|-0-------0-----------0---------------|-----2-------------0---0-------------|
A-|-------------------------2-----------|-3-------3-----------0---------------|
E-|-----------------3-------------------|-----------------1-------1-----------|

E-|-------------3---0---3---1---0-------|-------------3---0---3---1---0-------|
B-|-0-----------------------------------|-3---1-------------------------------|
G-|---------------0---0---0---0---0-----|---0---0-------0---0---0---0---0-----|
D-|---0---0-------------2---0-----------|---------------------2---0-----------|
A-|-----2-------2---3-----------3-------|-2---0-------2---3-----------3-------|
E-|-3-------3---------------------------|---------3---------------------------|

E-|-------------3---4---5---3---1-------|-0-------0---1---2---3---1-----------|
B-|-3---1---0---------------------------|-----3-----------------------3-------|
G-|---0---0-----5---6---7---5---3-------|-------------------------------------|
D-|-------------------------------------|-2---0---2---3---4---5---3---0-------|
A-|-2---0-------------------------------|-------------------------------------|
E-|---------3---------------------------|-------------------------------------|

E-|---------1-0-1-------0---------------|-------0-------0---1---2---3---4-----|
B-|-1---0---------3-1-------3---0-------|-----1-------------------------------|
G-|-----------------0-------------------|---0---------------------------------|
D-|---------3---------------------------|-------------2---3---4---5---6-------|
A-|-3-----------------------------------|-3-------3---------------------------|
E-|-------------------------3-----------|-------------------------------------|

E-|---5---6---7----8-----3---1-0-1------|---------------0---1---2---3---4-----|
B-|--------------------------------3----|-1-----------------------------------|
G-|-------------------------------------|---0---0-----------------------------|
D-|-7---8---9---10---5------------------|-----2-------2---3---4---5---6-------|
A-|-------------------------------------|-3-------3---------------------------|
E-|--------------------------3----------|-------------------------------------|

E-|---5---6---7----8-----3---1-0-1------|-----------------||
B-|--------------------------------3----|-1---------------||
G-|-------------------------------------|-0---------------||
D-|-7---8---9---10---5------------------|-2---------------||
A-|-------------------------------------|-3---3---3-------||
E-|--------------------------3----------|-----------------||

Ray Cote ([email protected] or [email protected])
 
 
Nicolo Paganini - Sonata In C Major :: indexed at Ultimate Guitar.
Sonata In C Major tabs @ 911Tabs
People who played Nicolo Paganini - Sonata In C Major also played these songs by Nicolo Paganini:
Caprice Opus 1 No 24 Tab, Romanze In Am Tab, Moto Perpetuo Tab, La Campanella Tab, 24th Caprice Tab, Caprice 2 Tab

Quick tip, so you can enjoy Sonata In C Major even more:

If you spend just 10 seconds to register, you will be able to comment on all the chords and tabs and rate them. You will as well be able to comment on videos of your fellow guitarists and give them ratings from 1 to 5 ... And - of course - you can share your own videos with them and see what they think of you. :)
Click here to join us!

Show us your talent, perform Sonata In C Major!

Here you can post a video or audio performance. Tell me more ...
Where can we find your performance? Tell me more ...
Your comment:
Please, log in to post your performance.