Artists by letter: A B C D E F G H I J K L M N O P Q R S T U V W X Y Z 0-9

 
A-punk Tab
Excellent band
http://www.vampireweekend.com/

This whole riff just repeats throughout the song.
sounds perfect to me.


e|--9-9----1212---77---1010-----------|
B|--1010---1010---88---8-8----7777777-|
G|----------------------------7777777-|
D|------------------------------------|
A|------------------------------------|
E|------------------------------------|x3

e|------------------------------------|
B|--10101010---8888---77777777--------|
G|--11111111---9999---77777777--------|
D|------------------------------------|
A|------------------------------------|
E|------------------------------------|x2

OR play it exactly like the band:

e|--9-9----1212---77---1010---2222222-|
B|--1010---1010---88---8-8----3333333-|
G|------------------------------------|
D|------------------------------------|
A|------------------------------------|
E|------------------------------------|x3

e|--5555---5555---2222----------------|
B|--7777---5555---3333----------------|
G|------------------------------------|
D|------------------------------------|
A|------------------------------------|
E|------------------------------------|x2

whatever you prefer...



 
 
Vampire Weekend - A-punk Tab :: indexed at Ultimate Guitar.
A-punk tabs @ 911Tabs

About the artist behind A-punk Tab:

Vampire Weekend is an indie rock band from New York City, formed in 2006 and signed to XL Recordings.

Indexed at Wikipedia.

Show us your talent, perform A-punk Tab!

Here you can post a video or audio performance. Tell me more ...
Where can we find your performance? Tell me more ...
Your comment:
Please, log in to post your performance.