Artists by letter: A B C D E F G H I J K L M N O P Q R S T U V W X Y Z 0-9

 
God Gammel Rock And Roll
[Intro] 

E A B E 

E|-----------------------------------------------------------
B|-----------------------------------------------------------
G|-----------------------------------------------------------
D|-----------------------------------------------------------
A|--2--2--2--2--2--2--4--2--2--2--2--2--2--2--4--2-----------
E|--0--0--3--4--0--0--0--0--0--0--3--4--0--0--0--0-----------


E|-----------------------------------------------------------
B|-----------------------------------------------------------
G|-----------------------------------------------------------
D|--2--2--2--2--2--2--4--2--2--2--2--2--2--2--4--2-----------
A|--0--0--3--4--0--0--0--0--0--0--3--4--0--0--0--0-----------
E|-----------------------------------------------------------


E|-----------------------------------------------------------
B|-----------------------------------------------------------
G|-----------------------------------------------------------
D|--4--4--4--4--4--4--6--4--4--4--4--4--4--4--6--4-----------
A|--2--2--5--6--2--2--2--2--2--2--5--6--2--2--2--2-----------
E|-----------------------------------------------------------


E|-----------------------------------------------------------
B|-----------------------------------------------------------
G|----------------------------4-4-4-4-4-4--------------------
D|----------------------------4-4-4-4-4-4--------------------
A|--2--2--2--2--2--2--4--2----2-2-2-2-2-2--------------------
E|--0--0--3--4--0--0--0--0-----------------------------------


Bb           E
Jeg kan’ke si jeg liker nostalgi
E           A
Jeg lever nå og veit hva det vil si
A             Bb
Man spør’u meg hva som har skikkelig soul
B          Eb
Speller jeg god gammal rock and roll

(Gjenta øverste grep)
Bb           E
Du få'kke hekta meg på disco
E           A
Og hippe stilarter som kommer og går
A             Bb
Så ber’u meg å dra langt pokker i vold
Bb          Eb
La meg ta med litt gammal rock and roll

 (Gjenta øverste grep)
Bb           E
Gi meg litt god gammal rock and roll
E           A
Gi meg litt blues gi meg skikkelig soul
A             Bb
Spell opp en country-låt i dur eller moll
Bb          Eb
Og gi meg god gammal rock and roll

 
Bb           E
Midt i et hav av forskjellig musikk
E           A
Er’e rett mye som kan gi deg kick
A             Bb
Men når’e av og til glir ut av kontroll
Bb          Eb
Speller jeg god gammal rock and roll

 
Bb           E
Kall meg fossil kall meg hva du vil
E           A
Si jeg er gammaldags og halvt senil
A             Bb
men lørdagskvelden ifra 11 til 12
E            Bb
Vil jeg ha god gammal rock and roll

 
Bb           E
Gi meg litt god gammal rock and roll
E           A
Gi meg litt blues gi meg skikkelig soul
A             Bb
Spell opp en country-låt i dur eller moll
Bb         Eb
Og gi meg god gammal rock and roll


Bb           E
Gi meg litt god gammal rock and roll
E           A
Gi meg litt blues gi meg skikkelig soul
A             Bb
Spell opp en country-låt i dur eller moll
Bb          Eb
Og gi meg god gammal rock and roll
 
 
new Jordal Swingers - God Gammel Rock And Roll :: indexed at Ultimate Guitar.
God Gammel Rock And Roll tabs @ 911Tabs
People who played new Jordal Swingers - God Gammel Rock And Roll also played these songs by new Jordal Swingers:
God Gammel Rock And Roll Chords

Quick tip, so you can enjoy God Gammel Rock And Roll even more:

YourChords.com Guitar Chords and Tabs Archive is currently indexing over 240'000 songs from 21'000+ different artists. And new chords just keep on coming in, so you will surely never run out of them.

Show us your talent, perform God Gammel Rock And Roll!

Here you can post a video or audio performance. Tell me more ...
Where can we find your performance? Tell me more ...
Your comment:
Please, log in to post your performance.