Artists by letter: A B C D E F G H I J K L M N O P Q R S T U V W X Y Z 0-9

 
Darkside
-------------------------------------------------------------------------------
   NECROPHOBIC-Darkside from Darkside 1997 Black Mark
-------------------------------------------------------------------------------
Tabbed by:NihilView
E-mail:


Tuning:standard D 


      tremolo picking........................................................-
d|----5----------------------------------------4-------------------------------| fast tempo
A|----6----------------------------------------5-------------------------------|
F|----7----------------4-------------6---------6-------------------------------| 0-0:13
C|----7----------------6-------------8---------6-------------------------------|
G|---------------------6-------------8-----------------------------------------|
D|-----------------------------------------------------------------------------|

   ............................................................................
d|-----------------------------------------------4-----------------------------|
A|----5------------------------------------------5-----------------------------|
F|----6-----------------4-------------6----------6-----------------------------|
C|----7-----------------6-------------8----------6-----------------------------|
G|----7-----------------6-------------8----------------------------------------|
D|-----------------------------------------------------------------------------|


d|-------------------4-------6--------4----------------------------------------|trem-pick
A|------6------------4-------6--------5----------------------------------------|slower tempo
F|------7------------4-------6--------6----------------------------------------|
C|------7------------6-------8--------6----------------------------------------| 0:13-0:26
G|----- 5------------6-------8--------4----------------------------------------|
D|-------------------4-------6-------------------------------------------------|



d|---------------------------------------------------------------------------|
A|---------------------------------------------------------------------------|
F|--2----2-2---3--2--2--2----5-5---5---3---2--33-3---2--0---6-6--------------|  verse 0:39-1:14
C|--0----0-0---0--0--0--0----0-0---0---0---0--00-0---0--0---6-6-7-6----------|
G|----------------------------------------------------------4-4-4-4----------|
D|---------------------------------------------------------------------------|



d|---------------------------------------------------------------------------|
A|---------------------------------------------------------------------------|  harmony 1:14-1.22
F|---------------------------------------------------------------------------|
C|-------------88888888--7777777---------------------------------------------|
G|---5555555----------------------4444444------------------------------------|
D|---------------------------------------------------------------------------|

  after harmony repeat verse to 1:42

e|---------------------------------------------------------------------------|
B|---------------------------------------------------------------------------|
G|-----7-------6-------------------------------------------------------------|  end of verse
D|-----7-------6-------------------------------------------------------------|
A|-----5-------4-------------------------------------------------------------| 1.39-1:42
E|---------------------------------------------------------------------------|



d|-----------------------------i---------------------------------------------|
A|-----------------------------i---------------------------------------------| pre-chorus
F|---------------2-------------i----------------1----------------------------|
C|-------33-2-3----33-2--------i-------22-1-2------22--1---------------------| 1:42-1:57
G|---5--------------------5----i---4----------------------4------------------|
D|-----------------------------i---------------------------------------------|



d|---------------------------------------------------------------------------|
A|---------------------------------------------------------------------------|
F|----------------2----------------------------------------------------------|
C|--------33-2-3-----33--2---------------------------------------------------|
G|----5----------------------5-----4444-----11111----------------------------|
D|---------------------------------------------------------------------------|



dI----------------------------------------------------------------------------I   BRIDGE
AI----------------------------------------------------------------------------I
FI---7----------10------------9-----------12----------------------------------I  1:57-2:04
CI---7----------10------------9-----------12----------------------------------I  
GI---5----------8-------------7-----------10----------------------------------I
DI--------------8-------------0-----------10----------------------------------I


After bridge repeat pre-chorus!


dI-----------------------------------------------------------------------------I
AI-----------------------------------------------------------------------------I  CHORUS
FI--------------------10-10-10--9-9-------------------9-9-1010-----------------I
CI---7-7-7-7---8-8----0--0--0---0-0----6-66-6----7-7--0-0-0-0------------------I   2:19-2:31
GI---5-5-5-5---5-5---------------------4-44-4----4-4---------------------------I
DI-----------------------------------------------------------------------------I



dI------------------------------------------------------------------------------I
AI------------------------------------------------------------------------------I
FI------------------1010-10-9-9--------------------9-9-9-9--7--7----------------I
CI---7-7-7-7--8-8---0--0-0--0-0----6-6--6---7-7----0-0-0-0--0--0----------------I
GI---5-5-5-5--5-5------------------4-4--4---4-4---------------------------------I
DI------------------------------------------------------------------------------I



SOLO 1.improvise some harmonic minor scale

dI------------------------------------------------------------------------------------------------I
AI----10 11--10H11P10--8H-10P8-----8--------------------------------------------------------------I
FI-----------------------------10----10--910--9--7----6-------------------------------------------I
CI------------------------------------------------------7--7H87--5-H7-5---5-----------------------I
GI----------------------------------------------------------------------8---8---7--5-/-4-----4--5-I
DI---------------------------------------------------------------------------------------6-5------I


repeat fast tremolo pick intro and listen song for timing and structure!







************************************

| /   slide up
| \   slide down
| h   hammer-on
| p   pull-off
| ~   vibrato
| +   harmonic
| x   Mute note
| b   Bend
| pb  Pre-bend
| br  Bend release
| pbr Pre-bend release
| brb Bend release bend

************************************
 
 
Necrophobic - Darkside :: indexed at Ultimate Guitar.
Darkside tabs @ 911Tabs

Quick tip, so you can enjoy Darkside even more:

After the registration (which takes just 10 seconds, remember?) you will be able to use your profile - your very own piece of YourChords.com.

Show us your talent, perform Darkside!

Here you can post a video or audio performance. Tell me more ...
Where can we find your performance? Tell me more ...
Your comment:
Please, log in to post your performance.