Artists by letter: A B C D E F G H I J K L M N O P Q R S T U V W X Y Z 0-9

 
The Stillborn One
Band: Necrophagist
Song: Stillborn One
Album: Epitaph
Tuning: D Standard

Awesome song!!!
So what ill do is because it sounds right with or without pinch harmonics
ill put them (*) in brackets so you know that its optional. I only tab
lead but some of the rhythem is just the lead guitar without power chords.

d|-------------------------------------------------------------|
A|-------------------------------------------------------------|
F|----3-/-4-\-3------------------------------------------------|
C|-----------------------------5--------------------------5(*)-|
G|-x--1-/-2-\-1-------------------7--9---4--5--4---------------|
D|-x-------------0--2(*)-3(*)------------2--3--2--0--2--3------|

d|---------------------------------------------------|
A|---------------------------------------------------|
F|-----------------------------------------------12--|
C|---------------------5(*)--3*b---------------------|
G|-4--5--4-----1--2(*)------------4--5--4--1--2--10--|
D|-2--3--2--0---------------------2--3--2------------|

d|-------------------------------------------------------------|
A|-------------------------------------------------------------|
F|----3-/-4-\-3------------------------------------------------|
C|-----------------------------5--------------------------5(*)-|
G|-x--1-/-2-\-1-------------------7--9---4--5--4---------------|
D|-x-------------0--2(*)-3(*)------------2--3--2--0--2--3------|

d|------------------------------------------------|
A|------------------------------------------------|
F|------------------------------------------------|
C|---------------------5(*)--3*b------------------|
G|-4--5--4-----1--2(*)------------4--5--4--1--2---|
D|-2--3--2--0---------------------2--3--2---------|

d|-----------------------------------|
A|-----------------------------------|
F|-----------------------------------|
C|-------0---------------------------|
G|-1--2-----1--2--1------------------|
D|-------------------3--2--3--2--0---|

d|-------------------------------------------------------------|
A|-------------------------------------------------------------|
F|----3-/-4-\-3------------------------------------------------|
C|-----------------------------5--------------------------5(*)-|
G|-x--1-/-2-\-1-------------------7--9---4--5--4---------------|
D|-x-------------0--2(*)-3(*)------------2--3--2--0--2--3------|

d|---------------------------------------------------|
A|---------------------------------------------------|
F|-----------------------------------------------12--|
C|---------------------5(*)--3*b---------------------|
G|-4--5--4-----1--2(*)------------4--5--4--1--2--10--|
D|-2--3--2--0---------------------2--3--2------------|

d|-------------------------------------------------------------|
A|-------------------------------------------------------------|
F|----3-/-4-\-3------------------------------------------------|
C|-----------------------------5--------------------------5(*)-|
G|-x--1-/-2-\-1-------------------7--9---4--5--4---------------|
D|-x-------------0--2(*)-3(*)------------2--3--2--0--2--3------|

d|------------------------------------------------|
A|------------------------------------------------|
F|------------------------------------------------|
C|---------------------5(*)--3*b------------------|
G|-4--5--4-----1--2(*)------------4--5--4--1--2---|
D|-2--3--2--0---------------------2--3--2---------|

d|-------------------------------------------|
A|-------------------------------------------|
F|-------------------------------------------|
C|-3------------------------3------2---2-----|
G|-3------------------------3------2---2-----|
D|-1----0-0-0-0-0-0-0-0-0---1------0---0-----|

d|----------------------------------|
A|----------------------------------|
F|----------------------------------|
C|-4----5-5-5-2-2-2-5--4------------|
G|--------------------------9----4--|
D|-6-------------------6--7-7--3-2--|

d|-------------------------------------------|
A|-------------------------------------------|
F|-------------------------------------------|
C|-3------------------------3------2---2-----|
G|-3------------------------3------2---2-----|
D|-1----0-0-0-0-0-0-0-0-0---1------0---0-----|

d|------------------------|
A|------------------------|
F|------------------------|
C|-4-----------------3--4-|
G|-----------2-------1--2-|
D|-6--3-3-3--0------------|

d|----------------------------------------------------|
A|----------------------------------------------------|
F|------------------------------------------------9---|
C|--------------------------------------------------8-|
G|--7--10-10-10--6---10--7--9-9-9--7-7-7-10-6b(7)-----|
D|----------------------------------------------------|

d|----------------------------------------------------|
A|----------------------------------------------------|
F|----------------------------------------------------|
C|----------------------------------------------------|
G|--7--10-10-10--6---10--7--9-9-9--7-7-7-10-6h-7-8----|
D|----------------------------------------------------|

d|----------------------------------------------------|
A|----------------------------------------------------|
F|------------------------------------------------9---|
C|--------------------------------------------------8-|
G|--7--10-10-10--6---10--7--9-9-9--7-7-7-10-6b(7)-----|
D|----------------------------------------------------|

d|----------------------------------------------------|
A|----------------------------------------------------|
F|----------------------------------------------------|
C|----------------------------------------------------|
G|--7--10-10-10--6---10--7--9-9-9--7-7-7-10-6h-7-8----|
D|----------------------------------------------------|

d|-------14b---14b------14b-----14b---------13b--13b---13b--|
A|----------------------------------------------------------|
F|-------------------------------------4--------------------|
C|-2-----------------------------------3--------------------|
G|-2-----------------------------------1--------------------|
D|-0-----------------------------------0--------------------|

d|-------14b---14b------14b-----14b---------13b--13b---13b--|
A|----------------------------------------------------------|
F|-------------------------------------3--------------------|
C|-2-----------------------------------2--------------------|
G|-2-----------------------------------1--------------------|
D|-0-----------------------------------0--------------------|

d|-----------------------------------------------------------------|
A|-----------------------------------------------------------------|
F|-----------------------------------------------------------------|
C|-----5---5-4---4-----5---5---9-8---8---7-----5---5-4---4-----5---|
G|---7---7-----------6---7---7-----6---6-----7---7-----------6---7-|
D|-0-----------0---0-----------------------0-----------0---0-------|

d|---------------|
A|---------------|
F|---------------|
C|---7-9p8---8---|
G|-5-------7-----|
D|---------------|

d|-----------------------------------------------------------------|
A|-----------------------------------------------------------------|
F|-----------------------------------------------------------------|
C|-----5---5-4---4-----5---5---9-8---8---7-----5---5-4---4-----5---|
G|---7---7-----------6---7---7-----6---6-----7---7-----------6---7-|
D|-0-----------0---0-----------------------0-----------0---0-------|

d|---------------|
A|---------------|
F|---------------|
C|---7-9p8---8---|
G|-5-------7-----|
D|---------------|

d|------------------------------------------------------------|
A|------------------------------------------------------------|
F|------------------------------------------------------------|
C|----------------------4-----------5----5--------5-----5----4|
G|----4-----------------------6-------------7-----------------|
D|-0-----3--0--3--2--2-----2-----3-------------3-----3-----2--|

d|-----------------------------------------------------------|
A|-----------------------------------------------------------|
F|---------------------------------------------------------9-|
C|-------------------------------5-----5--------8-----8------|
G|----4-----------------------6-----7-----7--------------7---|
D|-0-----3--0--3--2--2--2--2-----------------7-----6---------|

d|------------------------------------------------------------|
A|------------------------------------------------------------|
F|------------------------------------------------------------|
C|----------------------4-----------5----5--------5-----5----4|
G|----4-----------------------6-------------7-----------------|
D|-0-----3--0--3--2--2-----2-----3-------------3-----3-----2--|

d|-----------------------------------------------------------|
A|-----------------------------------------------------------|
F|---------------------------------------------------------9-|
C|-------------------------------5-----5--------8-----8------|
G|----4-----------------------6-----7-----7--------------7---|
D|-0-----3--0--3--2--2--2--2-----------------7-----6---------|

d|--------------------------------|
A|--------------------------------|
F|--------------------------------|
C|--------------------------------|
G|--------------------------------|
D|--------------------------------|

Ill finish up later
 
 
Necrophagist - The Stillborn One :: indexed at Ultimate Guitar.
The Stillborn One tabs @ 911Tabs
People who played Necrophagist - The Stillborn One also played these songs by Necrophagist:
Only Ash Remains Tab, Stabwound Tab, Fermented Offal Discharge Tab, Foul Body Autopsy Tab, Mutilate The Stillborn Tab, Epitaph Tab

Quick tip, so you can enjoy The Stillborn One even more:

YourChords.com Guitar Chords and Tabs Archive is currently indexing over 240'000 songs from 21'000+ different artists. And new chords just keep on coming in, so you will surely never run out of them.

Show us your talent, perform The Stillborn One!

Here you can post a video or audio performance. Tell me more ...
Where can we find your performance? Tell me more ...
Your comment:
Please, log in to post your performance.