Artists by letter: A B C D E F G H I J K L M N O P Q R S T U V W X Y Z 0-9

 
Only Ash Remains
D tuning

F||--9h10h13p10p9----9---------------------------|
C||---------------12---10h12p9h10h12p10p9--------|
G||---------------------------------------12~----|
D||----------------------------------------------|

-----------------------10h13-------------------10h13h14p13h14p13p10h13p10p|
--------------10h12h14----------------10h12h14----------------------------|
-----11h12h14----------------11h12h14-------------------------------------|
--13----------------------------------------------------------------------|

--9h10h13p10p9----9-------------------------------------------------|
---------------12---10h12p9h10h12p10p9----9-------------------10h12h|
---------------------------------------12---11h12----11h12h14-------|
--------------------------------------------------13----------------|

-----10-13-------------------10-13-14----10-13-10/-----|
--14----------------10-12-14----------14---------------|
-----------11-12-14------------------------------------|
-------------------------------------------------------|

--------------------------------------------------|
--------------------------------------------------|
--7-7-7-7-7-7-7-7-7-7-7-7-7-7-7-7-7-7-7-7-7-7-7-7-|
--------------------------------------------------|

------------------------------------------------|
------------------------------------------------|
--7-7-7-7-7-7-7-12-7-12-7-7-7-7-7-7-7-7-7-7-7-7-|
------------------------------------------------|



--------------------------------------------------|
--------------------------------------------------|
--7-7-7-7-7-7-7-7-7-7-7-7-7-7-7-7-7-7-7-7-7-7-7-7-|
--------------------------------------------------|

------------------------------------------------|
------------------------------------------------|
--7-7-7-7-7-7-7-12-7-12-7-7-7-7-7-7-7-7-7-7-7-7-|
------------------------------------------------|

--------------------------------------------10p9h10p|
----------------------------------------------------|
--7-7-7-7-7-7-7-7-7-7-7-7-7-7-7-7-7-7-7-7-7---------|
----------------------------------------------------|

--9h10h13p10p9----9-----------------------------------------------|
---------------12---10h12p9h10h12p10p9----9----------------9h10p9-|
---------------------------------------12---11h12----11h12--------|
--------------------------------------------------13--------------|

--10~---------------|--------------||
--------------------|--------------||
--8~----------------|--------------||
--------------------|--------------||

 
 
Necrophagist - Only Ash Remains :: indexed at Ultimate Guitar.
Only Ash Remains tabs @ 911Tabs
People who played Necrophagist - Only Ash Remains also played these songs by Necrophagist:
Only Ash Remains Tab, Stabwound Tab, Fermented Offal Discharge Tab, Foul Body Autopsy Tab, Mutilate The Stillborn Tab, Epitaph Tab

Quick tip, so you can enjoy Only Ash Remains even more:

If you don't really know how to deal with "Absus4" chord and his equally confusing brothers, just put the mouse cursor over them and you will be shown a helpful chord diagram.

Show us your talent, perform Only Ash Remains!

Here you can post a video or audio performance. Tell me more ...
Where can we find your performance? Tell me more ...
Your comment:
Please, log in to post your performance.