Artists by letter: A B C D E F G H I J K L M N O P Q R S T U V W X Y Z 0-9

 
And You Will Live In Terror
Band:  Necrophagia
Album: Black Blood Vomitorium
Song:  And you will live in terror

.  - palm mute           /  - slide up to
  - slide down to       ~  - vibrato
h  - hammer on           b  - Bend
p  - pull off            Suffixes for bend
t  - tap                 f  - full bend    h - half bend
BHR- Bend hold release  q  - quarter bend t - tap bend
*  - see comment         ^  - Hold bend    r release bend
x  - Stuccatto           ~  - vibrato bend
,  - slight palm mute    () - ghost note, sustained note
"  - tremolo note         - Trill

Tuning C G D G A D aka Two whole steps down
|-------------------------------------------------------------------|
|-------------------------------------------------------------------|
|-----INTRO-1x------------------------------------------------------|
|---------------------------------------------------------T-R-I-L-L-|
|--------------------------------------------------------1h2-1h2-2h3|
|55555--22222--111-222--111-222----55555--22222--111-222------------|

VERSE 5 x
|-------------------------------------------------------------------|
|-------------------------------------------------------------------|
|-------------------------------------------------------------------|
|-------------------------------------------------------------------|
|-------------------------------------------------------------------|
|55555--22222--111-222--111-222----55555--22222--111-222--111-222---|



x 1
|-------------------------------------------------------------------|
|-------------------------------------------------------------------|
|-----INTRO---------------------------------------------------------|
|---------------------------------------------------------T-R-I-L-L-|
|--------------------------------------------------------1h2-1h2-2h3|
|55555--22222--111-222--111-222----55555--22222--111-222------------|



Chorus 2 x
All half bends
|-------------------------------------------------------------------|
|-------------------------------------------------------------------|
|-------------------------------------------------------------------|
|-------------------------------------------------------------------|
|-----------4^------3^----3/4/3---------------4^------3^----3/4-----|
|-000000000-----000---000-2/3/2-----000000000-----000---000-2/3-----|
  .........     ...   ... . . .     .........     ...   ...
                           P M                              P M

x 1
|-------------------------------------------------------------------|
|-------------------------------------------------------------------|
|-----INTRO---------------------------------------------------------|
|---------------------------------------------------------T-R-I-L-L-|
|--------------------------------------------------------1h2-1h2-2h3|
|55555--22222--111-222--111-222----55555--22222--111-222------------|



VERSE 6x
|-------------------------------------------------------------------|
|-------------------------------------------------------------------|
|-------------------------------------------------------------------|
|-------------------------------------------------------------------|
|-------------------------------------------------------------------|
|55555--22222--111-222--111-222----55555--22222--111-222--111-222---|



Chorus 2 x
All half bends
|-------------------------------------------------------------------|
|-------------------------------------------------------------------|
|-------------------------------------------------------------------|
|-------------------------------------------------------------------|
|-----------4^------3^----3/4/3---------------4^------3^----3/4-----|
|-000000000-----000---000-2/3/2-----000000000-----000---000-2/3-----|
  .........     ...   ... . . .     .........     ...   ...
                           P M                              P M



INTERLUDE 3x            All NOTES RING OUT
|-------------------------------------------------------------------|
|-------------------------------------------------------------------|
|-------------------------------------------------------------------|
|------------------8-----8---(8)--------5----(5)-----4-----3(3)-----|
|-2----------7---7-----7---(7)--------4----(4)-----3-----2----(2)---|
|-0-ring-(0)---6-----6---(6)--------3----(3)-----2-----1--------(1)-|



1 x
|-------------------------------------------------------------------|
|-------------------------------------------------------------------|
|-------------------------------------------------------------------|
|------------------8-----8---(8)--------5---(5)----7----------------|
|-2----------7---7-----7---(7)--------4---(4)----6---6----7--3------|
|-0-ring-(0)---6-----6---(6)--------3---(3)----5----------6--2------|

CNTD.
|-------------------------------------------------------------------|
|-------------------------------------------------------------------|
|-------------------------------------------------------------------|
|-------------------------------------------------------------------|
|-2-2-2--22222222-2-2-222222---4-4-4-444444--3333333-33333----------|
|-0-0-0--00000000-0-0-000000---3-3-3-333333--2222222-11111----------|

|-------------------------------------------------------------------|
|-------------------------------------------------------------------|
|-------------------------------------------------------------------|
|-------------------------------------------------------------------|
|-2-2-2--22222222-2-2-222222---4-4-4-444444--666666------7---3------|
|-0-0-0--00000000-0-0-000000---3-3-3-333333--555555------6---2------|

|-------------------------------------------------------------------|
|-------------------------------------------------------------------|
|-------------------------------------------------------------------|
|-------------------------------------------------------------------|
|-2-2-2--22222222-2-2-222222---4-4-4-444444--3333333-33333----------|
|-0-0-0--00000000-0-0-000000---3-3-3-333333--2222222-11111----------|

|-------------------------------------------------------------------|
|-------------------------------------------------------------------|
|-------------------------------------------------------------------|
|-------------------------------------------------------------------|
|-2-2-2--22222222-2-2-222222---4-4-4-444444--666666------7---3------|
|-0-0-0--00000000-0-0-000000---3-3-3-333333--555555------6---2------|



BREAKDOWN x 8
|-------------------------------------------------------------------|
|-------------------------------------------------------------------|
|-------------------------------------------------------------------|
|--------------------1/4Bend----------------------------------------|
|----7-----8-----9------5^--5^--------------------------------------|
|----5--0--6--0--7--(0)----1/2BH------------------------------------|



CTND. 4 x
|-------------------------------------------------------------------|
|-------------------------------------------------------------------|
|-------------------------------------------------------------------|
|----------------------1/4bend--------------------------------------|
|-----------------------5^--5^--------------------------------------|
|-0-0-0-0-0-0-0-0--0--0----1/2BHR-----------------------------------|
  . . . . . . . . . . .
  PM PM PM PM PM PM PM

CTND x4
|-------------------------------------------------------------------|
|-------------------------------------------------------------------|
|-------------------------------------------------------------------|
|--------------------1/4Bend----------------------------------------|
|-5-------4-----------5^---5^---------------------------------------|
|-3--0-0--2--0-0--000-----1/2BHR------------------------------------|
     . .     . .  ...
     PM      PM   PM

break 2x
|-------------------------------------------------------------------|
|-------------------------------------------------------------------|
|-------------------------------------------------------------------|
|----------5-5h8-(7h8p7h8p7-7p6h7p6)----------5---5--8-8--7h8p7h8p7-|
|--------7----------------------------------7---7-------------------|
|-0-3/6------------------------------0-3/6--------------------------|



3:40 second guitar comes in Play 4 x
|-------------------------------------------------------------------|
|-------------------------------------------------------------------|
|-------------------------------------------------------------------|
|------8/11--11/11--13/14-------8/11--11/10-10/7--------------------|
|------7/10--10/12--12/13-------7/10--10/9--9/6---------------------|
|-0000---------------------0000-------------------------------------|



CHORUS RIFF PLAY 2x
|-------------------------------------------------------------------|
|-------------------------------------------------------------------|
|-------------------------------------------------------------------|
|-------------------------------------------------------------------|
|-----------4^------3^----3/4/(3)-------------4^------3^----3/4-----|
|-000000000-----000---000-2/3/(2)---000000000-----000---000-2/3-----|

OUTRO
|-------------------------------------------------------------------|
|-------------------------------------------------------------------|
|-------------------------------------------------------------------|
|----------------------------x--------------------------------------|
|-2-------------------2------x-PICK-SLIDE--2------4^full~~--4^1/2~~-|
|-0-ring---/10^hold---0-ring---------------0------------------------|

Last section of song, is one guitar ringing open on E, and bends and
vibrato on 4th fret a string,

 
 
Necrophagia - And You Will Live In Terror :: indexed at Ultimate Guitar.
And You Will Live In Terror tabs @ 911Tabs

Quick tip, so you can enjoy And You Will Live In Terror even more:

If you spend just 10 seconds to register, you will be able to comment on all the chords and tabs and rate them. You will as well be able to comment on videos of your fellow guitarists and give them ratings from 1 to 5 ... And - of course - you can share your own videos with them and see what they think of you. :)
Click here to join us!

Show us your talent, perform And You Will Live In Terror!

Here you can post a video or audio performance. Tell me more ...
Where can we find your performance? Tell me more ...
Your comment:
Please, log in to post your performance.