Artists by letter: A B C D E F G H I J K L M N O P Q R S T U V W X Y Z 0-9

 
Sexy Love
-------------------------------------------------------------------------------
                             SEXY LOVE - Ne-Yo
-------------------------------------------------------------------------------
Tabbed by:
E-mail:

Tuning:

e|----------------0---------------------------3--1--0---------------1/3------|
B|-1--1/3--3------0--0--1------1--1/3--3------0--------3--1------1--1/3--3---|
G|-2--2/4--4---------0--0------2--2/4--4------0-----------0------2-------4---|
D|---------------------------------------------------------------------------|
A|----------------------0---------------------------------0------------------|
E|-1-------3------0------------1-------3------0------------------1--1/3--3---|

e|----0--------------------------------0-------------------------------------|
B|-3--0--1---------0h1p0-----1------1--0--3----------------------------------|
G|-4-----0----------------0--3------3-----4----------------------------------|
D|---------------------------------------------------------------------------|
A|-------0------0-------------------------3----------------------------------|
E|-3--0----------------------1------1--0-------------------------------------|


************************************

| /   slide up
| \   slide down
| h   hammer-on
| p   pull-off
| ~   vibrato
| +   harmonic
| x   Mute note
| b   Bend
| pb  Pre-bend
| br  Bend release
| pbr Pre-bend release
| brb Bend release bend

************************************
 
 
Ne-yo - Sexy Love :: indexed at Ultimate Guitar.
Sexy Love tabs @ 911Tabs

Quick tip, so you can enjoy Sexy Love even more:

YourChords.com Guitar Chords and Tabs Archive is currently indexing over 240'000 songs from 21'000+ different artists. And new chords just keep on coming in, so you will surely never run out of them.

Show us your talent, perform Sexy Love!

Here you can post a video or audio performance. Tell me more ...
Where can we find your performance? Tell me more ...
Your comment:
Please, log in to post your performance.