Artists by letter: A B C D E F G H I J K L M N O P Q R S T U V W X Y Z 0-9

 
Miss Independent
this is the chorus part only...



she  got her own thing that's why i   love her
|-----------------------------------------------------------------------------------------|
|-----------------------------------------------------------------------------------------|
|--12---13--15--8---9-----8------9---11--11---13------------------------------------------|
|-----------------------------------------------------------------------------------------|
|-----------------------------------------------------------------------------------------|
|-----------------------------------------------------------------------------------------|

miss in de pen dent won't you come and   spend  a  lit tle time
|-----------------------------------------------------------------------------------------|
|-----------------------------------------------------------------------------------------|
|--12---13-15-8---9----8-----9---9----9/11--13----13--13--12--10--------------------------|
|-----------------------------------------------------------------------------------------|
|-----------------------------------------------------------------------------------------|
|-----------------------------------------------------------------------------------------|

she  got her own thing that's why i   love her
|-----------------------------------------------------------------------------------------|
|-----------------------------------------------------------------------------------------|
|--12---13--15--8---9-----8------9---11--11---13------------------------------------------|
|-----------------------------------------------------------------------------------------|
|-----------------------------------------------------------------------------------------|
|-----------------------------------------------------------------------------------------|

miss in de pen dent ooh her way wil shine miss in   de pen dent
|-----------------------------------------------------------------------------------------|
|-----------------------------------------------------------------------------------------|
|--12---13-15-8---9----8---9---9---8h9-9-----9---9/11--11-11--9---------------------------|
|-----------------------------------------------------------------------------------------|
|-----------------------------------------------------------------------------------------|
|-----------------------------------------------------------------------------------------|
 
 
Ne-yo - Miss Independent :: indexed at Ultimate Guitar.
Miss Independent tabs @ 911Tabs

Quick tip, so you can enjoy Miss Independent even more:

If you don't really know how to deal with "Absus4" chord and his equally confusing brothers, just put the mouse cursor over them and you will be shown a helpful chord diagram.

Show us your talent, perform Miss Independent!

Here you can post a video or audio performance. Tell me more ...
Where can we find your performance? Tell me more ...
Your comment:
Please, log in to post your performance.