Artists by letter: A B C D E F G H I J K L M N O P Q R S T U V W X Y Z 0-9

 
Closer
Ok, so this is standard tuning, but i might experiment with others later.  anyway:

Intro

------------------                              -------------------|
------------------                              -------------------|
------------------                              -------------------|
-2-2--5-----------                              555555555555555555-|
------------------ which eventually switches to -------------------|
------------------                              -------------------|

Method one

----------3-------3-------3--------------------3-------3-------3----------|
------7-------7-------7-------7------------7-------7-------7-------7------|
----7---7---7---7---7---7---7---7--------7---7---7---7---7---7---7---7----|
--------------------------------------------------------------------------|
-3------------------------------------3-----------------------------------|
--------------------------------------------------------------------------|

then, when the bass note switches:

----------3-------3-------3--------------------3-------3-------3----------|
------7-------7-------7-------7------------7-------7-------7-------7------|
----7---7---7---7---7---7---7---7--------7---7---7---7---7---7---7---7----|
--------------------------------------------------------------------------|
-7------------------------------------7-----------------------------------|
--------------------------------------------------------------------------|

make sure you let all the notes ring during these sections

and that's it. email me for help/ suggestions
 
 
Ne-yo - Closer :: indexed at Ultimate Guitar.
Closer tabs @ 911Tabs

Quick tip, so you can enjoy Closer even more:

You might want to transpose the song if it is too high or too low for you to sing. Just click the desired option while playing a song and all the chords will automatically be transponded into a new key.

Show us your talent, perform Closer!

Here you can post a video or audio performance. Tell me more ...
Where can we find your performance? Tell me more ...
Your comment:
Please, log in to post your performance.