Artists by letter: A B C D E F G H I J K L M N O P Q R S T U V W X Y Z 0-9

 
Alone
soundcloud link : https://soundcloud.com/nathan-ball-music/alone


[Intro]
e|-----------------------------------------------------------|
B|-----------------------------------------------------------|
G|-----------------------------------------------------------|
D|-----------------------------------------------------------|
A|---2-(2)-2/4/2p0---0----0--0--2-----2/4/2p0----0---0---0---|
E|---0-------------2------2-------0------------2---2---2---2-|


[Verse]
e|------------------------------------------------------|
B|------------------------------------------------------|
G|------------------------------------------------------|x2
D|------------------------------------------------------|
A|---2/4/2p0---0----2/4/2p0-----2---pb2p0---0---0---0---|
E|----------2-----2-----------0---0------2----2---2---2-|


[Chorus]
e|------------------------------------------------|
B|------------------------------------------------|
G|------------------------------------------------|x2  
D|------------------------------------------------|
A|-2--2--2--2--0--0--0--0--2--2--2--2--0--0--0--0-|
E|-0--0--0--0--2--2--2--2--0--0--0--0--2--2--2--2-|

e|-------------| 
B|-------------| 
G|-------------|  
D|-------------|  
A|-2---pb2p0---| 
E|-0---------2-| 


[Breake]
e|------------------------------------------|
B|------------------------------------------|
G|------------------------------------------|
D|------------------------------------------|
A|--0-0-2--2/4-4/5-5/4--2p0----0---0---0----|
E|------0--------------------2---2---2---2--|


[Verse]
e|------------------------------------------------------|
B|------------------------------------------------------|
G|------------------------------------------------------|x2
D|------------------------------------------------------|
A|---2/4/2p0---0----2/4/2p0-----2---pb2p0---0---0---0---|
E|----------2-----2-----------0---0------2----2---2---2-|


[Chorus]
e|------------------------------------------------|
B|------------------------------------------------|
G|------------------------------------------------|x2  
D|------------------------------------------------|
A|-2--2--2--2--0--0--0--0--2--2--2--2--0--0--0--0-|
E|-0--0--0--0--2--2--2--2--0--0--0--0--2--2--2--2-|

e|-------------| 
B|-------------| 
G|-------------|  
D|-------------|  
A|-2---pb2p0---| 
E|-0---------2-| 



[Solo]
e|---------------------------------------------------------------------------|
B|------------------------------------------14-------------------------------|
G|-9/11----16(hold)------------9/11----16-----14---------14p13---11---9p6----|
D|---------------------------------------------------------------------------|
A|---------------------------------------------------------------------------|
E|---------------------------------------------------------------------------|

e|---------------------------------------------------------------------------|
B|------------------17-----14------17-17/19--14------------------------------|
G|-9p11----16---16-----16------16--------------14p13-14p13--11h13--11--9p6---|
D|---------------------------------------------------------------------------|
A|---------------------------------------------------------------------------|
E|---------------------------------------------------------------------------|

e|---------------------------------------------------------------------------|
B|---------------------------------------------------------------------------|
G|-pb5-4----6/9-9-9-9/11--6---9/11-11-11--11/13-9---14-14-14--13--11-13--11--|
D|---------------------------------------------------------------------------|
A|---------------------------------------------------------------------------|
E|---------------------------------------------------------------------------|

e|---------------------------------------------------------------------------|
B|-----------------------------------17/19-17-14-17------------14------------|
G|-9/11-13--11/13-13h14-14-16-16--16-----------------14-16-16-----16-14--9---|
D|---------------------------------------------------------------------------|
A|---------------------------------------------------------------------------|
E|---------------------------------------------------------------------------|

e|---------------------------------------|
B|---------------------------------------|
G|-6/9--9/11--14-11---pb10-9-------------|
D|-------------------------------pb2p0---|
A|-------------------------------------3-|

************************************
| /   Slide up
| (n) Ghost note
| h   Hammer-on
| p   Pull-off
| pb  Pre-bende
************************************

 
 
Nathan Ball - Alone :: indexed at Ultimate Guitar.
Alone tabs @ 911Tabs
People who played Nathan Ball - Alone also played these songs by Nathan Ball:
Alone Tab, Right Place Acoustic Tab, Right Place Acoustic

Quick tip, so you can enjoy Alone even more:

After the registration (which takes just 10 seconds, remember?) you will be able to use your profile - your very own piece of YourChords.com.

Show us your talent, perform Alone!

Here you can post a video or audio performance. Tell me more ...
Where can we find your performance? Tell me more ...
Your comment:
Please, log in to post your performance.