Artists by letter: A B C D E F G H I J K L M N O P Q R S T U V W X Y Z 0-9

 
Trasgresores De La Ley
Hola amigos esta es me primer transcripcion espero que no tenga error
y pues esta cancion es un homenaje a tijuana no y pues la verdad
esta muy buena esta rola.

Este es el intro casi toda la cancion es con distorcion.

--------------------------------------------------------------------------
--------------------------------------------------------------------------
--7-7-7-7-----------------------------7-7-7-7--------------------5-5-5-5--
--7-7-7-7--7-7-7-7--8-8-8-8--5-5-5-5--7-7-7-7--7-7-7-7--8-8-8-8--5-5-5-5--
--5-5-5-5--7-7-7-7--8-8-8-8--5-5-5-5--5-5-5-5--7-7-7-7--8-8-8-8--3-3-3-3--
-----------5-5-5-5--6-6-6-6--3-3-3-3-----------5-5-5-5--6-6-6-6-----------

-----------------------------------------------------------------
-----------------------------------------------------------------
--7-7-7-7-----------10-10-10-10-----------8-8-8---10-10-10---7---
--7-7-7-7--7-7-7-7--10-10-10-10--7-7-7-7--8-8-8---10-10-10---7---
--5-5-5-5--7-7-7-7--8--8--8--8---7-7-7-7--6-6-6---8--8--8----5---
-----------5-5-5-5---------------5-5-5-5-------------------------

Despues empiezan todos los instrumentos y de nuevo se repite el intro

LA PIEL DEL JAGUAR QUE ADORNABA EL SUELO
HOY ES  NOBLE ARMADURA DE MI PUEBLO
---------------------------------
---------------------------------
-8--8--8---10--10--10------7-----
-8--8--8---10--10--10------7-----
-6--6--6---8---8---8-------5-----
---------------------------------

COMO UN FEROZ GUERRERO DEFENDIENDO LA SIERRA
ZAPATA VIVE SIGUE EN PIE DE GUERRA

---------------------------------
---------------------------------
-8--8--8---10--10--10------7-----
-8--8--8---10--10--10------7-----
-6--6--6---8---8---8-------5-----
---------------------------------

SOLO UN PU'ADO DE HOMBRES DISPUESTOS A MORIRSE
POR CONTINUAR LA REVOLUCIOOOON

--------------------------------
--------------------------------
--7---------------7-----------5-
--7---7---8---5---7---7---8---5-
--5---7---8---5---5---7---8---3-
------5---6---3-------5---6-----

------------------------------------
------------------------------------
--7-------10-----------8---10---7---
--7---7---10-------7---8---10---7---
--5---7---8--------7---6---8----5---
------5------------5----------------

¡A DEFENDER LA DIGNIDAD GRITANDO FUERTE
TIERRA Y LIBERTAD!

-------------------------------------
-------------------------9-8-7-------
-------------------9-8-7-------------
-------------9-8-7----------------7--
-------9-8-7----------------------7--
-9-8-7----------------------------5--


NO PASARAN DE ESTE LUGAR LA RESISTENCIA NI UN PASO ATRAS!

------------
------------
------------
----7-------
----7-------
----5-------

¡A DEFENDER LA DIGNIDAD GRITANDO FUERTE
TIERRA Y LIBERTAD!

-------------------------------9-8-7------------
-------------------------9-8-7------------------
-------------------9-8-7------------------------
-------------9-8-7--------------------9-10-11---
-------9-8-7------------------------------------
---9-8-7----------------------------------------


--------------------------------------------------------------------------
--------------------------------------------------------------------------
--7-7-7-7-----------------------------7-7-7-7--------------------5-5-5-5--
--7-7-7-7--7-7-7-7--8-8-8-8--5-5-5-5--7-7-7-7--7-7-7-7--8-8-8-8--5-5-5-5--
--5-5-5-5--7-7-7-7--8-8-8-8--5-5-5-5--5-5-5-5--7-7-7-7--8-8-8-8--3-3-3-3--
-----------5-5-5-5--6-6-6-6--3-3-3-3-----------5-5-5-5--6-6-6-6-----------

-----------------------------------------------------------------
-----------------------------------------------------------------
--7-7-7-7-----------10-10-10-10-----------8-8-8---10-10-10---7---
--7-7-7-7--7-7-7-7--10-10-10-10--7-7-7-7--8-8-8---10-10-10---7---
--5-5-5-5--7-7-7-7--8--8--8--8---7-7-7-7--6-6-6---8--8--8----5---
-----------5-5-5-5---------------5-5-5-5-------------------------


LAS MANOS DE ESTE PUEBLO ES SANGRE DE MI RAZA
DE GENTE CAMPESINA QUIEN VA A DESCANZAR?

(En esta parte de repite el intro mientras canta pero con palmute)

ESPERANDO EN LA SELVA
COMO REBELDE TRINCHERA
EL INDIO SIGUE LABRANDO LA TIERRA

COMO UN FEROZ GUERRERO DEFENDIENDO LA SIERRA
ZAPATA VIVE SIGUE EN PIE DE GUERRA

SOLO UN PU'ADO DE HOMBRES DISPUESTOS A MORIRSE
POR CONTINUAR LA REVOLUCIOOOON

¡A DEFENDER LA DIGNIDAD GRITANDO FUERTE
TIERRA Y LIBERTAD!

------------------------------------
-------------------------9-8-7------
-------------------9-8-7------------
-------------9-8-7------------------
-------9-8-7------------------------
-9-8-7------------------------------

(En esta parte cuando toca el sax y los istrumentos de viento se toca
las notas SOL y LA con ritmo ska sin distorcion)

  LA       SOL
---5--------3---------
---5--------3---------
---5--------4---------
---7--------5---------
---7--------5---------
---5--------3---------

¡A DEFENDER LA DIGNIDAD GRITANDO FUERTE
TIERRA Y LIBERTAD!

------------
------------
------------
----7-------
----7-------
----5-------

NO PASARAN DE ESTE LUGAR LA RESISTENCIA NI UN PASO ATRAS!

-------------------------------------
-------------------------9-8-7-------
-------------------9-8-7-------------
-------------9-8-7----------------7--
-------9-8-7----------------------7--
-9-8-7----------------------------5--

¡A DEFENDER LA DIGNIDAD GRITANDO FUERTE
TIERRA Y LIBERTAD!

------------
------------
------------
----7-------
----7-------
----5-------

NO PASARAN DE ESTE LUGAR LA RESISTENCIA NI UN PASO ATRAS!

-------------------------------9-8-7------------
-------------------------9-8-7------------------
-------------------9-8-7------------------------
-------------9-8-7--------------------9-10-11---
--------9-8-7-----------------------------------
---9-8-7----------------------------------------


Eso es todo compañeros espero y les ayude esta transcripcion y espero
que no tenga errores le mando un saludo a toda la banda q le gusta la
nana pancha arriba el ska-punk señores y ke viva zapata !!!
 
 
Nana Pancha - Trasgresores De La Ley :: indexed at Ultimate Guitar.
Trasgresores De La Ley tabs @ 911Tabs
People who played Nana Pancha - Trasgresores De La Ley also played these songs by Nana Pancha:
Luna Chords, Nana Pancha Chords, Mala Suerte Chords, Sin Temor Chords, Trasgresores De La Ley Tab, Calavera Tab

Quick tip, so you can enjoy Trasgresores De La Ley even more:

You might want to transpose the song if it is too high or too low for you to sing. Just click the desired option while playing a song and all the chords will automatically be transponded into a new key.

Show us your talent, perform Trasgresores De La Ley!

Here you can post a video or audio performance. Tell me more ...
Where can we find your performance? Tell me more ...
Your comment:
Please, log in to post your performance.