Artists by letter: A B C D E F G H I J K L M N O P Q R S T U V W X Y Z 0-9

 
Mostros
Hola compañeros aqui colaborando con este exelente tributo a la
maldita vecindad y que mejor echa por la nana pancha bueno va asi
esta muy facil.


Notas:

   LA   SOL#
---5-----4----
---5-----4----
---6-----5----
---7-----6----
---7-----6----
---5-----4----

Intro:Va por quintas

----------------------------------------------------
----------------------------------------------------
-----------------------9-------------------------9--
--7-7----6-6----7-7----9----7-7----6-6----7-7----9--
--7-7----6-6----7-7----7----7-7----6-6----7-7----7--
--5-5----4-4----5-5---------5-5----4-4----5-5-------


LA,SOL# X4


La desafiante ciudad más grande del mundo
-----------------------------------------
-----------------------------------------
-----------------------------------------
-7-7--------------------------------6-6--
-7-7--------------------------------6-6--
-5-5--------------------------------4-4--


acechan, con gran maldad,
-------------------------
-------------------------
---------7-----------6---
---------7-----------6---
---------5-----------4---
-------------------------


abyectos humanoides.
Es un cruel mundo de pesadillacon olor a azufre,
----------------------------------------------------
----------------------------------------------------
----------------------------------------------------
-7-7------------------------------6-6-------------------
-7-7------------------------------6-6-------------------
-5-5------------------------------4-4-------------------


muerte y terror,
----------------
----------------
-7----------6---
-7----------6---
-5----------4---
----------------

los zombies caminan las calles.


LA,SOL# X4


Niños bizarros resucitados por genios indecentes,
-------------------------------------------------
-------------------------------------------------
-------------------------------------------------
-7-7----------------------------6-6--------------
-7-7----------------------------6-6--------------
-5-5----------------------------4-4--------------


profanarán los sueños ajenos.
-----------------------------
-----------------------------
-7-------6-------------------
-7-------6-------------------
-5-------4-------------------
-----------------------------


Alcantarillas llenas de sangre y piel
-------------------------------------------------
-------------------------------------------------
-------------------------------------------------
-7-7----------------------------6-6--------------
-7-7----------------------------6-6--------------
-5-5----------------------------4-4--------------


fermentan los cerebros, melífluos condenados a mal vivir.
---------------------------------------------
---------------------------------------------
---------------------------------------------
--------------7--------------------6---------
--------------7--------------------6---------
--------------5--------------------4---------


Ya no vendrán
----------------
----------------
-7-7-7-6-6-6----
-7-7-7-6-6-6----
-5-5-5-4-4-4----
----------------


el Santo y Blue Demon,


gobernarán
----------------
----------------
-7-7-7-6-6-6----
-7-7-7-6-6-6----
-5-5-5-4-4-4----
----------------

los vampiros banqueros,


vemos pasar
----------------
----------------
-7-7-7-6-6-6----
-7-7-7-6-6-6----
-5-5-5-4-4-4----
----------------

a La Llorona con miedo,


libre está
----------------
----------------
-7-7-7-6-6-6----
-7-7-7-6-6-6----
-5-5-5-4-4-4----
----------------

LA Mano Peluda.


LA,SOL# X4


Poderoso caballero es Don Dinero,
---------------------------------
---------------------------------
---------------------------------
-0--------------------7----------
-0--------------------7----------
-2--------------------5----------


la Momia Azteca es líder obrero,
--------------------------------
--------------------------------
--------------------------------
-0-----------------7-7---7-7----
-0-----------------7-7---7-7----
-2-----------------5-5---5-5----


cráneos enterrados en todos los jardines,
---------------------------------
---------------------------------
---------------------------------
-0--------------------7----------
-0--------------------7----------
-2--------------------5----------


platillos voladores por todos los confines,
-----------------------------------------
-----------------------------------------
-----------------------------------------
-0----------------------7-7-------7-7----
-0----------------------7-7-------7-7----
-2----------------------5-5-------5-5----


superstición, videntes en la tele,
---------------------------
---------------------------
---------------------------
-0--------------7----------
-0--------------7----------
-2--------------5----------


el Hombre Lobo, el Coco comegente.
-----------------------------------------
-----------------------------------------
-----------------------------------------
-0----------------------7-7-------7-7----
-0----------------------7-7-------7-7----
-2----------------------5-5-------5-5----


El Dr. Malosos es el monarca,
---------------------------
---------------------------
---------------------------
-0--------------7----------
-0--------------7----------
-2--------------5----------


la Paz de los Sepulcros reina en su comarca.
--------------------------------------------
--------------------------------------------
--------------------------------------------
-0-----------------------7-7---------7-7----
-0-----------------------7-7---------7-7----
-2-----------------------5-5---------5-5----


Este es un cuento de terror


En esta oscura y larga noche,


la tormenta con relámpagos y truenos.


Ilumina los rostros de terror y miedo.


De terror y miedo.


---------------------------------------------------------
--------------------------------10--10-9-7---------------
-7--7--10-9-10-9-7---7--10-9-10------------10-9-7--8-7-6-
---------------------------------------------------------
---------------------------------------------------------
---------------------------------------------------------


--------------------------------------------
--------------------------------------------
--7--6--------------------------------------
-------7--6--7----7--6-6----7--7--6---------
--------------------------------------------
--------------------------------------------


------------------------------------------------------
------------------------------------------------------
----6--------------6-----6-------6--------------6---6-
-7-----7--6--7--7-----7-----7-------7--6--7--7-----7--
------------------------------------------------------
------------------------------------------------------


LA,SOL# X4


(TERMINAS CON ESTA QUINTA)

--------
--------
---7----
---7----
---5----
--------

Y eso es todo bueno le dejo mi correo por cualquier duda o aclaracion
es [email protected] arriba el ska-punk y porfavor califiquen.

SALUD Y SKAA !!!
 
 
Nana Pancha - Mostros :: indexed at Ultimate Guitar.
Mostros tabs @ 911Tabs
People who played Nana Pancha - Mostros also played these songs by Nana Pancha:
Luna Chords, Nana Pancha Chords, Mala Suerte Chords, Sin Temor Chords, Trasgresores De La Ley Tab, Calavera Tab

Quick tip, so you can enjoy Mostros even more:

If you spend just 10 seconds to register, you will be able to comment on all the chords and tabs and rate them. You will as well be able to comment on videos of your fellow guitarists and give them ratings from 1 to 5 ... And - of course - you can share your own videos with them and see what they think of you. :)
Click here to join us!

Show us your talent, perform Mostros!

Here you can post a video or audio performance. Tell me more ...
Where can we find your performance? Tell me more ...
Your comment:
Please, log in to post your performance.