Artists by letter: A B C D E F G H I J K L M N O P Q R S T U V W X Y Z 0-9

 
Flores Para Los Muertos
Yea muy buena rola espero este bien y arriba la nana pancha señores
y arriba el ska-punk

Acordes:

  SOL   FA
---3----1---
---3----1---
---4----2---
---5----3---
---5----3---
---3----1---

Intro: TODA LA CANCION CON DISTORCION

(LAS 5 PRIMERAS QUINTAS CON PALM MUTE DESPUES RASGUEO NORMAL)

-----------------------------------------------
-----------------------------------------------
----------------5--3--------------------5--3---
--5-5-5--3--5---5--3--3-4--5-5-5--3--5--5--3--- X2
--5-5-5--3--5---3--1--3-4--5-5-5--3--5--3--1---
--3-3-3--1--3---------1-2--3-3-3--1--3---------


Herederos de la tierra dispuestos a defender
--------------------------------------------
--------------------------------------------
----------5------------3--------------------
-5--------5------------3------------3-4------
-5--------3------------1------------3-4------
-3----------------------------------1-2------

Y a luchar con digna rabia contra el poder
------------------------------------------
------------------------------------------
---------------5--------3-----------------
-5-------------5--------3-----------3-4---
-5-------------3--------1-----------3-4---
-3----------------------------------1-2---

500 años mas no debemos soportar
----------------------------------
----------------------------------
-------5--------3-----------------
-5-----5--------3-----------3-4---
-5-----3--------1-----------3-4---
-3--------------------------1-2---

Sabes bien no esta mal, todo tiene su final...
-------------------------------------------
-------------------------------------------
---------------5--------3------------------
-5-------------5--------3-----------3-4-5--
-5-------------3--------1-----------3-4-5--
-3----------------------------------1-2-3--


SOL                    FA
Y han perdido sus vidas

SOL
Y han perdido su libertad

SOL                      FA
Y has robado su derecho a trabajar

SOL                       FA
Nunca has podido arrancar su dignidad


     Mas flores para los muertos Tendremos que cosechar
-------------------------------------------------------
-------------------------------------------------------
-7--8-----7----7--8-----7----7--8-----7----7--8-----7--
-7--8--7--7----7--8--7--7----7--8--7--7----7--8--7--7--
-5--6--7--5----5--6--7--5----5--6--7--5----5--6--7--5--
-------5-------------5-------------5-------------5-----


vvvvvvSera en defenza de la tierra el dia de tu funeral!
-------------------------------------------------------
-------------------------------------------------------
-7--8-----7----7--8-----7----7--8-----7----7--8-----7--
-7--8--7--7----7--8--7--7----7--8--7--7----7--8--7--7--
-5--6--7--5----5--6--7--5----5--6--7--5----5--6--7--5--
-------5-------------5-------------5-------------5-----


-------------------------------------------------------------
-------------------------------------------------------------
-----5--3-----------5--3-----------5--3-----------5--3-------
--5--5--3--3--4--5--5--3--3--4--5--5--3--3--4--5--5--3--3--4-
--5--3--1--3--4--5--3--1--3--4--5--3--1--3--4--5--3--1--3--4-
--3--------1--2--3--------1--2--3--------1--2--3--------1--2-

SOL              FA
Y han perdido sus vidas

SOL              FA
Y han perdido su libertad

SOL              FA
Y has robado su derecho a trabajar

SOL                       FA
Nunca has podido arrancar su dignidad


     Mas flores para los muertos Tendremos que cosechar
-------------------------------------------------------
-------------------------------------------------------
-7--8-----7----7--8-----7----7--8-----7----7--8-----7--
-7--8--7--7----7--8--7--7----7--8--7--7----7--8--7--7--
-5--6--7--5----5--6--7--5----5--6--7--5----5--6--7--5--
-------5-------------5-------------5-------------5-----


Sera en defenza de la tierra el dia de tu funeral!
-------------------------------------------------------
-------------------------------------------------------
-7--8-----7----7--8-----7----7--8-----7----7--8-----7--
-7--8--7--7----7--8--7--7----7--8--7--7----7--8--7--7--
-5--6--7--5----5--6--7--5----5--6--7--5----5--6--7--5--
-------5-------------5-------------5-------------5-----


-------------------------------------------------------------
-------------------------------------------------------------
-----5--3-----------5--3-----------5--3-----------5--3-------
--5--5--3--3--4--5--5--3--3--4--5--5--3--3--4--5--5--3--3--4-
--5--3--1--3--4--5--3--1--3--4--5--3--1--3--4--5--3--1--3--4-
--3--------1--2--3--------1--2--3--------1--2--3--------1--2-


SOL                     FA
Gritalo va a estallar!! Poco puede soportar

SOL                     FA
Gritalo va a estallar!! Todo tiene su final

SOL                     FA
Gritalo va a estallar!! Poco puede soportar

SOL                     FA
Gritalo va a estallar!! Todo tiene su final

--------------------------------
--------------------------------
--------------5--3--------------
--5-5-5--3-5--5--3--3-4--5/0----
--5-5-5--3-5--3--1--3-4--5/0----
--3-3-3--1-3--------1-2--3/0----

Bueno eso es todo gracias y porfavor califiquen mi transcripcion
y disfruten esta rola.

SALUD Y SKA !!!!!!!!!
 
 
Nana Pancha - Flores Para Los Muertos :: indexed at Ultimate Guitar.
Flores Para Los Muertos tabs @ 911Tabs
People who played Nana Pancha - Flores Para Los Muertos also played these songs by Nana Pancha:
Luna Chords, Nana Pancha Chords, Mala Suerte Chords, Sin Temor Chords, Trasgresores De La Ley Tab, Calavera Tab

Quick tip, so you can enjoy Flores Para Los Muertos even more:

If you don't really know how to deal with "Absus4" chord and his equally confusing brothers, just put the mouse cursor over them and you will be shown a helpful chord diagram.

Show us your talent, perform Flores Para Los Muertos!

Here you can post a video or audio performance. Tell me more ...
Where can we find your performance? Tell me more ...
Your comment:
Please, log in to post your performance.