Artists by letter: A B C D E F G H I J K L M N O P Q R S T U V W X Y Z 0-9

 
Tv Song
https://www.youtube.com/watch?v=QCyvsM4xyZs

[Intro]
   E   A   E   A   E   A  Dbm Ab A F#m E
e|-0-------------------------------------|
B|---0-1~--0-----------------------------|
G|-----------1-2~--1---------------------|
D|-------------------1-2~----------------|
A|-------------------------4-------------|
E|----------------------------4--5--2--0-|

E

[Verse 1]
          E
Since the day I let you in
            F#m
Feel it’s a cosmopolitan
          B                              E
Don’t you know I tried so hard to make a home for you

[Pre-chorus 1]
          A                E
Oh but my cupboards mostly empty
        A          E
And you always get upset
            A                  E
And now I'm working nights for nickels
        B
Just to feed my favorite pet

      A       E       A       E       A       E       B
e|----------------------------------------------------------------|
B|----------------------------------------------------------------|
G|----6-9-------------6-9-------------6-9-------------8-8-9-9-8~--|
D|--------7-6-6-----------7-6-6-----------7-6-6-------------------|
A|----------------------------------------------------------------|
E|----------------------------------------------------------------|[this plays over the prechorus chords]
 
[Chorus 1]
            A        
I know it's easy to remind me of
    E
The things I haven’t got
        F#m                            B              
It’d be better if, you left me here to rot

[Interlude]
   E   A   E   A   E   A  Dbm Ab A F#m E
e|-0-------------------------------------|
B|---0-1~--0-----------------------------|
G|-----------1-2~--1---------------------|
D|-------------------1-2~----------------|
A|-------------------------4-------------|
E|----------------------------4--5--2--0-|

E

[Verse 2]
    E
You say that it’s a choice
          F#m
To make a message with my voice
           B                                E
But I'm on eggshells when I walk around the living room
                        E
Cause at the end of the day my nightly news
       F#m
Is inundated with your views
           B                               E
I start to think there isn’t nothing I can do

[Pre-chorus 2]
               A                   E
Cause you move mountains with your anger
          A                  E
You swell oceans when you’re sad
              A                E
And you start wars with your rejoicing
        B
And you treated me so bad

      A       E       A       E       A       E       B
e|----------------------------------------------------------------|
B|----------------------------------------------------------------|
G|----6-9-------------6-9-------------6-9-------------8-8-9-9-8~--|
D|--------7-6-6-----------7-6-6-----------7-6-6-------------------|
A|----------------------------------------------------------------|
E|----------------------------------------------------------------|(this plays over the prechorus chords)

[Chorus 2]
           A
There is a conflict here of interest
    E
The interest isn’t mine
  F#m                                B
I start to think about leaving you behind

[Interlude]
   E   A   E   A   E   A  Dbm Ab A F#m A
e|-0-------------------------------------|
B|---0-1~--0-----------------------------|
G|-----------1-2~--1---------------------|
D|-------------------1-2~----------------|
A|-------------------------4-------------|
E|----------------------------4--5--2--5-|

[Chorus 3]
         A                                E      
Some definitions of our difference once invented long maintained
          F#m                            B
Someone’s dying on a dance floor you can say we are the same
           A   (stop)
But it’s a lie

[Bridge]
A 
War machines and power dreams
    E
And racist homophobic schemes
      F#m
Can’t orient themselves
            B
To give the people what they need
             A                E
The ones who live to lead our fights
             A                E
The ones who died to gain our rights
             A               E
The ones who left it on your cutting floor
      B
Shout who turned out the lights
         A (stop)
I know I tried

   A                E                 F#m              B
e|---------------------------------------------------------------------------|
B|-9-10-9---9-10-9--9-10-9--9h10-9--7-7h9-7------------9-7-----9-7-----------|
G|-------9--------9-------9-----------------9-6--6-6-------9-------9-8-------|
D|---------------------------------------------------9-------9---------------|
A|---------------------------------------------------------------------------|
E|---------------------------------------------------------------------------|

   A       E        A       E        A      E       B               A
e|----------------------------------------------------------7-------------|
B|------------7----------------7-----9-7----9-7-----7-7-7h9---9-7---------|
G|-6-9-6--------9-8-6-9-6--------9-8-----9------9-----------------9-6~~---|
D|-------9-9--------------9-9--------------9------9-----------------------|
A|------------------------------------------------------------------------|
E|------------------------------------------------------------------------| (This is the lead to the bridge)

[Outro]
E

    E                  F#m                   B               E
e|--------------------------------------------------7-----------------|
B|--9--7--7-9-----9-7--7-7-7h9---------9-7---7-7-7h9---9-7------------|
G|------9------------9---------6-----------9---------------9-9--6-----|
D|----------------------------------------------------------------9---|
A|--------------------------------------------------------------------|
E|--------------------------------------------------------------------|

    E                  F#m                   B               E
e|--------------------------------------------------7-----------------|
B|--9--7--7-9-----9-7--7-7-7h9---------9-7---7-7-7h9---9-7------------|
G|------9------------9---------6-----------9---------------9-9--9~~---|
D|--------------------------------------------------------------------|
A|--------------------------------------------------------------------|
E|--------------------------------------------------------------------|



************************************

| ~  Vibrato
| h  Hammer-on

************************************
 
 
Nana Grizol - Tv Song :: indexed at Ultimate Guitar.
Tv Song tabs @ 911Tabs

Quick tip, so you can enjoy Tv Song even more:

Try out the AutoScroller option ... It scrolls the page for you, so you can totally focus on nailing that solo. You can choose among different speeds using your mouse or your keyboard (keys 0, 1, 2 and 3).

Show us your talent, perform Tv Song!

Here you can post a video or audio performance. Tell me more ...
Where can we find your performance? Tell me more ...
Your comment:
Please, log in to post your performance.