Artists by letter: A B C D E F G H I J K L M N O P Q R S T U V W X Y Z 0-9

 
When Autmns Storms Come
-------------------------------------------------------------------------------
                             
NAGLFAR-When Autumns Storms Come  from DIABOLICAL 1998 WAR MUSIC.
-------------------------------------------------------------------------------
Tabbed by:
NihilView


Tuning:E standard 

              
       FIGURE 1                                         FIGURE 2

   TREM.PICK.............
e|---7---------10---------7---9---10-------6------I-------------------------------------|
B|---8---------11---------8---10--11-------7------I-------------------------------------|
G|---9---------12---------9---11--12-------8------I-------------------------------------|
D|---9---------12---------9---11--12-------8------I----2---5--2--4--5----8--------------|  INTRO
A|------------------------------------------------I----2---5--2--4--5----6--------------|
E|------------------------------------------------I----0---3--0--2--3----6--------------|


  play lightly palm mute.......................................................................
e|-----------------------------------------------------------------------------------------------|  
B|-----------------------------------------------------------------------------------------------|
G|---9----------11-----------12---------------11--9-------8-------10---------11-----------10--8--|  BRIDGE 
D|------9--9---------9-9-----------9--9---9------------------8-8------8--8-------8-8---8---------|  GUIT 1.
A|-----------------------------------------------------------------------------------------------|
E|-----------------------------------------------------------------------------------------------|

   lightly mute...................................................................................
e|---------------------------------------------------------------------------------------------------|
B|---------------------------------------------------------------------------------------------------|
G|--9---------11-----------12--------------11---9-------12-----------14----------15--------------14--|
D|-----9-9---------9-9---------9--9-----9-------------------12--12-------12--12-------12-12--12------|
A|---------------------------------------------------------------------------------------------------|
E|---------------------------------------------------------------------------------------------------|


e|--------------------------------4------------------------------------------|
B|--------------------------------4------------------------------------------|BACK POWERCHORDS FOR BRIDGE!
G|---4----------------------------4------------------------------------------|
D|---2----------------------------6------------------------------------------| GUIT 2.
A|---2----------------------------6------------------------------------------|
E|---0----------------------------4------------------------------------------|


e|---------------------------------------------------------------------------|
B|---------------------------------------------------------------------------|
G|---------------------------------------------------------------------------| PREVERSE
D|-------5---7---9---------9---7---4-------5--7--9---10-9---7---9------------|
A|-------7---9---10--------10--9---5-------7--9--10--12-10--9--10------------| BOTH GUITARS
E|--0------------------0----------------0------------------------------------|



e|----------------------------------------------------------------------------------|
B|----------------------------------------------------------------------------------|
G|----------------------------------------------------------------------------------| VERSE
D|--9999---------9999--------9999---------9-10--10p9h10p9-7-------9-7-5sl.-4--------|
A|---------77----------77-----------77-----------------------10---------------------|
E|----------------------------------------------------------------------------------|


  REPEAT PERVERSE!


                                                       TREM.PICK...................
e|----------------------------I---7---6-----2---3----8-----------------------------|
B|----------------------------I---8---7-----3---4----9-----------------------------|
G|--9-----8---------------10--I---9---8-----4---5----10----------------------------|CHORUS
D|--9-----8----9---10-----10--I---9---8-----4---5----10----------------------------|
A|--7-----6----9---10-----8---I---7---6-----2---3----8-----------------------------|
E|--0----------7---8----------I----------------------------------------------------|



e|-----------------------------------------------------------------------------------------|BACK CHORDS
B|-----------------------------------------------------------------------------------------|FOR CHORUS!
G|--------4--------------------3--------------------0----------------------3---------------|
D|-----5-----5--------------4-----4--------------1------1--------------4--------4----------|
A|--7------------7-----6--------------6------3-------------3------6------------------6-----|
E|-----------------------------------------------------------------------------------------|



I--------------------------------I
I--------------------------------I
I-----------------------------5--I END RIFF 2X
I--2---------------2----------5--I
I--2-------5-------2--4--5----3--I
I--0--0-0--3--0-0--0--2--3-------I








************************************

| /   slide up
| \   slide down
| h   hammer-on
| p   pull-off
| ~   vibrato
| +   harmonic
| x   Mute note
| b   Bend
| pb  Pre-bend
| br  Bend release
| pbr Pre-bend release
| brb Bend release bend

************************************
 
 
Naglfar - When Autmns Storms Come :: indexed at Ultimate Guitar.
When Autmns Storms Come tabs @ 911Tabs

About the artist behind When Autmns Storms Come:

Naglfar (not to be confused with the German Nagelfar) is a Swedish black metal band formed in 1992. The group was formed by Jens Rydén and Kristoffer Olivius, originally under the name "Uninterred".

Indexed at Wikipedia.

Show us your talent, perform When Autmns Storms Come!

Here you can post a video or audio performance. Tell me more ...
Where can we find your performance? Tell me more ...
Your comment:
Please, log in to post your performance.