Artists by letter: A B C D E F G H I J K L M N O P Q R S T U V W X Y Z 0-9

 
Bron-Yr-Aur
-------------------------------------------------------------------------------
                                  ‘Bron-Yr-Aur’
                                  by Jimmy Page
-------------------------------------------------------------------------------

Studio version
Tuning: CACGCE

e:----------0----------|
C:------------------0--|
G:--------0-------0----| repeat 4 - 5x
C:------0-------0------|
A:--2s3----------------|
C:------------0--------|

e:--------3p0--------|-----------------|--------0----------|-----------------|
C:--2-------------0--|--------0--------|--5-------------0--|--------0--------|
G:----0---------0----|------0-------0--|----4---------4----|------0-------0--|
C:------2-----2------|----0-------0----|------0-----0------|----0-------0----|
A:--2-------2--------|--3--------------|--5-------5--------|--3--------------|
C:-------------------|----------0------|-------------------|---------0-------|

e:--------3p0--------|---------------|--------0----------|-----------------|
C:--2---------2------|------0--------|--5-------------0--|--------0--------|
G:----0---------0----|----0-------0--|----4---------4----|------0-------0--|
C:------2---------0--|--0-------0----|------0-----0------|----0-------0----|
A:--2-------2--------|---------------|--5-------5--------|--3--------------|
C:-------------------|--------0------|-------------------|----------0------|

e:----------------0---|-----------------|
C:--------0-----------|--------0--------|
G:--0-----------0-----|------0-------0--| 2x
C:----0-------0-------|------------0----|
A:------0---0---------|--0h3------------|
C:--5-----------------|----------0------|

e:-------3p0--------|-----------------|--------0----------|-------------------|
C:-2-------------0--|--------0--------|--5-------------0--|--------0-------0--|
G:---0---------0----|------0-------0--|----4---------4----|------0-------0----|
C:-----2-----2------|----0-------0----|------0-----0------|----0-------0------|
A:-2-------2--------|--3--------------|--5-------5--------|--3----------------|
C:------------------|----------0------|-------------------|----------0--------|

e:------------------------------------|
C:----------0h2-----2s4----4-------0--|
G:--------0-------0------4-------0----|  2x  (see note 1)
C:------0-------2------4-------4------|
A:--2s3-------2------0-------0--------|
C:------------------------------------|

e:--------------------------------------------------------|
C:----------0h2-----2s4----4h5p4-----4h5p4-----4-------5--|
G:--------0-------0------4---------4---------4-------4----|
C:------0-------2------4---------4---------4-------4------|
A:--2s3-------2------0---------0---------0-------0--------|
C:--------------------------------------------------------|

e:--------------------------------------|-------------------|
C:--------4-------4s5------5---------0--|--------0-------0--|
G:------4-------4--------5---------7----|------0-------0----|
C:----4-------4--------5---------7------|------------0------|
A:--0-------0---------------------------|--0h3--------------|
C:-----------------4s5-------5s7--------|----------0--------|

e:---------------------|------------------|-----------------------|
C:---------5---------0-|-------0-------0--|----------5---------0--|
G:-------5---------7---|-----0-------0----|--------5---------7----|(see note 2)
C:-----5---------7-----|-----------0------|------5---------7------|
A:---------------------|-0h3--------------|-----------------------|
C:-3s5-------5s7-------|---------0--------|--3s5-------5s7--------|

e:-------------------|-----------------------|-----------------|
C:--------0-------0--|----------5---------0--|--------0--------|
G:------0-------0----|--------5---------7----|------0-------0--|
C:------------0------|------5---------7------|------------0----|
A:--0h3--------------|-----------------------|--0h3------------|
C:----------0--------|--3s5-------5s7--------|----------0------|

e:--------3p0-------|---------------|-------0---------|----------------|
C:--2-------------0-|-------0-------|-5-------------0-|-------0--------|
G:----0---------0---|-----0-------0-|---4---------4---|-----0-------0--| 2x
C:------2-----2-----|---0-------0---|-----0-----0-----|---0-------0----|
A:--2-------2-------|-3-------------|-5-------5-------|-3--------------|
C:------------------|---------0-----|-----------------|---------0------|

e:----------------0-|----------------|
C:--------0---------|-------0--------|
G:--0-----------0---|-----0-------0--| 2x
C:----0-------0-----|-----------0----|
A:------0---0-------|-0h3------------|
C:--5---------------|---------0------|

e:-------3p0--------|-----------------|--------0----------|-------------------|
C:-2-------------0--|--------0--------|--5-------------0--|--------0-------0--|
G:---0---------0----|------0-------0--|----4---------4----|------0-------0----|
C:-----2-----2------|----0-------0----|------0-----0------|----0-------0------|
A:-2-------2--------|--3--------------|--5-------5--------|--3----------------|
C:------------------|----------0------|-------------------|----------0--------|

e:------------------------------------|--------------------------------------|
C:--------0h2-----2s4----4h5p4-----0--|----------0h2-----2s4----4h5p4-----0--|
G:------0-------0------4---------4----|--------0-------0------4---------x----|
C:----0-------2------4---------4------|------0-------2------4---------4------|
A:--3-------2------0---------0--------|--2s3-------2------0---------0--------|
C:------------------------------------|--------------------------------------|

e:------------------------------------------------------|
C:----------0h2-----2s4----4h5p4-----4-------5-------4--|
G:--------0-------0------4---------4-------4-------4----|
C:------0-------2------4---------4-------4-------4------|
A:--2s3-------2------0---------0-------0-------0--------|
C:------------------------------------------------------|


e:--------------------------------------|-------------------|
C:--------5-------4s5------5---------0--|--------0-------0--|
G:------4-------4--------5---------7----|------0-------0----|
C:----4-------4--------5---------7------|------------0------|
A:--0-------0---------------------------|--0h3--------------|
C:-----------------4s5-------5s7--------|----------0--------|

e:-----------------------|-------------------|-----------------------|
C:----------5---------0--|--------0-------0--|----------5---------0--|
G:--------5---------7----|------0-------0----|--------5---------7----|
C:------5---------7------|------------0------|------5---------7------|
A:-----------------------|--0h3--------------|-----------------------|
C:--3s5-------5s7--------|----------0--------|--3s5-------5s7--------|

e:-------------------|---------------------|---------------------------|
C:--------0-------0--|----------5----------|--------4-------5-------4--|
G:------0-------0----|--------5---------7--|------4-------4-------4----|
C:------------0------|------5---------7----|----4-------4-------4------|
A:--0h3--------------|---------------------|--0-------0-------0--------|
C:----------0--------|--3s5-------5s7------|---------------------------|

e:----------------------------------------------------------0--|
C:--------5-------4-------5-------4-------4---------0-----0----|
G:------4-------4-------4-------4-------4---------0-----5------|
C:----4-------4-------4-------4-------4---------5-----7--------|
A:--0-------0-------0-------0-------0-------6s7----------------|
C:-------------------------------------------------------------|

e:--------0-------0-------0-------0-------0-------0-------0---||
C:------5-------5-------5-------5-------5-------5--------0----||
G:----7-------7-------7-------7-------7-------7---------0-----||
C:--0-------0-------0-------7-------0-------7----------0------||
A:----------------------------------------------------3-------||
C:---------------------------------------------------0--------||

Note 1:
 
As you play the open 5th string, simultaneously bring your index
finger in behind your ring finger (which is still fretting the 2nd
string on the 2nd fret) and bar across the 2nd, 3rd and 4th strings
on the 2nd fret. As your index finger comes into place, remove your
ring finger from the fret board and do a slide up from the 2nd to
the 4th fret with your index finger.

Note 2:

For the slide up bar chords:
Use your middle finger to fret the 6th string and to mute the 5th
string. Use your ring finger to bar across the 2nd, 3rd & 4th strings.
OR
Use your thumb positioned over the top of the neck to fret the 6th
string and for muting the 5th string. Use your index finger to bar
across the 2nd, 3rd & 4th strings.


Tabbed by Devin L., Dec 2013.
Source: ‘Physical Graffiti’ album by Led Zeppelin.

 
-------------------------------------------------------------------------------
                                  ‘Bron-Yr-Aur’ 
                                   L.A. 9/4/70 
-------------------------------------------------------------------------------

Tuning: CACGCE

e:----------0----------|--------0----------|--------0----------|
C:------------------0--|----------------0--|----------------0--|
G:--------0-------0----|------0-------0----|------0-------0----|
C:------0-------0------|------------0------|------------0------|
A:--2s3----------------|--0h3--------------|--0h3--------------|
C:------------0--------|----------0--------|----------0--------|

e:--------0----------|
C:----------------0--|
G:------0-------0----|
C:------------0------|
A:--0h3--------------|
C:----------0--------|

e:--------3p0--------|-----------------|--------0---------|----------------|
C:--2-------------0--|--------0--------|--5-------------0-|-------0--------|
G:----0---------0----|------0-------0--|----4---------4---|-----0-------0--| 2x
C:------2-----2------|----0-------0----|------0-----0-----|---0-------0----|
A:--2-------2--------|--3--------------|--5-------5-------|-3--------------|
C:-------------------|----------0------|------------------|---------0------|

e:----------------0--|-----------------|
C:--------0----------|--------0--------|
G:--0-----------0----|------0-------0--| 2x
C:----0-------0------|------------0----|
A:------0---0--------|--0h3------------|
C:--5----------------|----------0------|

e:-------3p0--------|-----------------|--------0----------|-------------------|
C:-2-------------0--|--------0--------|--5-------------0--|--------0-------0--|
G:---0---------0----|------0-------0--|----4---------4----|------0-------0----|
C:-----2-----2------|----0-------0----|------0-----0------|----0-------0------|
A:-2-------2--------|--3--------------|--5-------5--------|--3----------------|
C:------------------|----------0------|-------------------|----------0--------|

e:----------------------------------|------------------------------------|
C:--------0h2-----2s4----4-------0--|--------0h2-----2s4----4h5p4-----0--|
G:------0-------0------4-------0----|------0-------0------4---------0----|
C:----0-------2------4-------4------|----0-------2------4---------4------|
A:--3-------2------0-------0--------|--3-------2------0---------0--------|
C:----------------------------------|------------------------------------|

e:-----------------------------------------------------------------|
C:--------0h2-----2s4----4h5p4-----4h5p4-----4h5p4-----4s5------5--|
G:------0-------0------4---------4---------4---------4--------5----|
C:----0-------2------4---------4---------4---------4--------5------|
A:--3-------2------0---------0---------0---------0-----------------|
C:------------------------------------------------------4s5--------|


e:------------|-------------------|----------------------|--------------------|
C:---------0--|--------0-------0--|----------5---------0-|---------0-------0--|
G:-------7----|------0-------0----|--------5---------7---|-------0-------0----|
C:-----7------|------------0------|------5---------7-----|-------------0------|
A:------------|--0h3--------------|----------------------|---0h3--------------|
C:-5s7--------|----------0--------|--3s5-------5s7-------|-----------0--------|

e:-----------------------|-----------------|
C:----------5---------0--|--------0--------|
G:--------5---------7----|------0-------0--|
C:------5---------7------|------------0----|
A:-----------------------|--0h3------------|
C:--3s5-------5s7--------|----------0------|

e:--------0-----------|--------0----------|------------------<5>--|
C:--7--------------7--|----------------7--|--------<5>------------|
G:----0----------0----|------0-------0----|------5---------5------|
C:------6------6------|----6-------6------|----5---------5--------|
A:--7--------7--------|--7-------7--------|--5---------5----------|
C:--------------------|-------------------|-----------------------|

e:--------<7>------------|-------------------|-------------------|
C:------------------<5>--|--------0-------0--|--------<5>--------|
G:------5---------0------|------0-------0----|------0---------0--|
C:----5------------------|----0-------0------|----0---------0----|
A:--5---------5-3--------|--3----------------|--3----------------|
C:-----------------------|----------0--------|------------0------|

e:----------0----------|--------0----------|----------------0--|
C:--4s7-------------7--|----------------7--|--------0----------|
G:------0---------0----|------0-------0----|------5-------5----|
C:--------6-----6------|----6-------6------|----5-------5------|
A:--4s7-------7--------|--7-------7--------|--5-------5--------|
C:---------------------|-------------------|-------------------|

e:--------<7>------------|-------------------|-------------------|
C:------------------<5>--|--------0-------0--|----------0--------|
G:------5---------0------|------0-------0----|--------0-------0--|
C:----5------------------|----0-------0------|------0-------0----|
A:--5---------5-3--------|--3----------------|--2s3--------------|
C:-----------------------|----------0--------|------------0------|

e:-------3p0--------|-----------------|--------0----------|----------------|
C:-2-------------0--|--------0--------|--5-------------0--|-------0--------|
G:---0---------0----|------0-------0--|----4---------4----|-----0-------0--| 2x
C:-----2-----2------|----0-------0----|------0-----0------|---0-------0----|
A:-2-------2--------|--3--------------|--5-------5--------|-3--------------|
C:------------------|----------0------|-------------------|---------0------|

e:----------------0--|-----------------|
C:--------0----------|--------0--------|
G:--0-----------0----|------0-------0--| 2x
C:----0-------0------|------------0----|
A:------0---0--------|--0h3------------|
C:--5----------------|----------0------|


e:-------3p0--------|-----------------|--------0----------|-------------------|
C:-2-------------0--|--------0--------|--5-------------0--|--------0-------0--|
G:---0---------0----|------0-------0--|----4---------4----|------0-------0----|
C:-----2-----2------|----0-------0----|------0-----0------|----0-------0------|
A:-2-------2--------|--3--------------|--5-------5--------|--3----------------|
C:------------------|----------0------|-------------------|----------0--------|

e:------------------------------------|------------------------------------|
C:--------0h2-----2s4----4h5p4-----0--|--------0h2-----2s4----4h5p4-----0--|
G:------0-------0------4---------0----|------0-------0------4---------0----|
C:----0-------2------4---------4------|----0-------2------4---------4------|
A:--3-------2------0---------0--------|--3-------2------0---------0--------|
C:------------------------------------|------------------------------------|

e:-----------------------------------------------------------------|
C:--------0h2-----2s4----4h5p4-----4h5p4-----4h5p4-----4s5------5--|
G:------0-------0------4---------4---------4---------4--------5----|
C:----0-------2------4---------4---------4---------4--------5------|
A:--3-------2------0---------0---------0---------0-----------------|
C:------------------------------------------------------4s5--------|

e:------------|-------------------|-----------------------|-------------------|
C:---------0--|--------0-------0--|----------5---------0--|--------0-------0--|
G:-------7----|------0-------0----|--------5---------7----|------0-------0----|
C:-----7------|------------0------|------5---------7------|------------0------|
A:------------|--0h3--------------|-----------------------|--0h3--------------|
C:-5s7--------|----------0--------|--3s5-------5s7--------|----------0--------|

e:-----------------------|-----------------------------------------------|
C:----------5---------0--|--------4h5p4-----4-------4h5p4-----4-------4--|
G:--------5---------7----|------4---------4-------4---------4-------4----|
C:------5---------7------|----4---------4-------4---------4-------4------|
A:-----------------------|--0---------0-------0---------0-------0--------|
C:--3s5-------5s7--------|-----------------------------------------------|

e:----------------------------------------0-------0-------0-------0--|
C:--------4-------4-------0-------0-----0-------5-------5-------5----|
G:------4-------4-------4-------0-----5-------7-------7-------7------|
C:----4-------4-------4-------5-----7-------0------------------------|
A:--0-------0-------0-------7----------------------------------------|
C:-------------------------------------------------------------------|

e:--------0----------||
C:------5------------||
G:----7--------------||
C:--0----------------||
A:-------------------||
C:-----------0-(0)---||


h = hammer-on       p = pull-off         x = muted note   

<> = harmonic      () = ringing note     s = slide up/slide down 


Tabbed by Devin L., Feb 2014.
Source: Bootleg recording, Los Angeles, Ca. September 4, 1970.

 
 
Led Zeppelin - Bron-Yr-Aur :: indexed at Ultimate Guitar.
Bron-Yr-Aur tabs @ 911Tabs

About the artist behind Bron-Yr-Aur:

Led Zeppelin were an English rock band that formed in August 1968. Led Zeppelin consisted of Jimmy Page (guitar), Robert Plant (vocals), John Paul Jones (bass guitar, keyboards) and John Bonham (drums). With their heavy, guitar-driven sound, Led Zeppelin are regarded as one of the first heavy metal bands.[1][2] However, the band's individualistic style draws from many sources and transcends any one genre.[3] Their rock-infused interpretation of the blues and folk genres[4] also incorporated rockabilly,[5] reggae,[6] soul,[7] funk,[8] classical, Celtic, Indian, Arabic, pop, Latin and country. The band did not release the popular songs from their albums as singles in the UK, as they preferred to develop the concept of album-oriented rock.[9]

Close to 30 years after disbanding following Bonham's death in 1980, Led Zeppelin continue to be held in high regard for their artistic achievements, commercial success and broad influence. The band have sold more than 300 million albums worldwide,[10][11][12][13][14] including 111.5 million sales in the United States[15] and they have had all their non-compilation studio albums reach the U.S. Billboard Top 10.[16] Led Zeppelin are ranked No. 1 on VH1's 100 Greatest Artists of Hard Rock.[17] Rolling Stone magazine has described Led Zeppelin as "the heaviest band of all time" and "the biggest band of the 70s".[18]

On 10 December 2007 the surviving members of Led Zeppelin reunited (along with deceased drummer John Bonham's son Jason) for the Ahmet Ertegün Tribute Concert at The O2 in London.

Indexed at Wikipedia.

Show us your talent, perform Bron-Yr-Aur!

Here you can post a video or audio performance. Tell me more ...
Where can we find your performance? Tell me more ...
Your comment:
Please, log in to post your performance.