Artists by letter: A B C D E F G H I J K L M N O P Q R S T U V W X Y Z 0-9

En Mejillones Yo Tuve Un Amor (ver 2) - Lalo Parra


 
En Mejillones Yo Tuve Un Amor
Buenas, esta versión creo que es distinta a las anteriormente publicadas..
Pero no se, a mi particularmente me gusta bastante.
ojala les guste =)
salu2


------------------------------------------------
------9-10-10----10-10----10--------9-10----10-9
-9-11---------11-------11------9-11------11-----
------------------------------------------------
------------------------------------------------
------------------------------------------------

------------------------------------------------
---------------------------10-9-10-9-10-9-10----
-11-10-11-10-11-10-11-11------------------------
------------------------------------------------
------------------------------------------------
------------------------------------------------

-11-11-11-11-----------------9----9--------------
-------------12-9-12-9---------12---12-10--------
-----------------------10------------------------
--------------------------11---------------------
-------------------------------------------------
-------------------------------------------------

----------------------------------------12-12-11-10---
----9-10-9-10-11-12-12-11-12--10-9--------------------
-11--------------------------------11-9---------------
------------------------------------------------------
------------------------------------------------------
------------------------------------------------------


A)La                                        [ch]E[/ch]
En Mejillones yo tuve un amor y no lo puedo encotrar
                 [ch]D                  LA[/ch]
quizás en esa playa escuchandome estará
        [ch]C#                      FA#m[/ch]
es una linda rubiecita, ojos de verde mar
       [ch]B7                                 [ch]A[/ch]  [ch]E[/ch] [ch]D#[/ch] RE[/ch]
me besó un día y se fue, no volvió más

A)
Ahora dime por donde estará
que me da mucha tristeza
alumbrar con tus faroles
esperando que amanezca

    [ch]C#                                      RE[/ch]
Mejillones duerme, duerme, pero duerme como un niño
               [ch]B7                             A   [ch]E[/ch] [ch]D#[/ch] RE[/ch]
despierta Mejillones me dirás aquí tienes mi cariño


Interludio con clarinete o Saxo creo.. Me la juego por el Saxo x)

Luego el Tío Lalo imita la melodía con puros lalás,
asi que ahi ustedes le ponen bueno x)

A)Ahora dime por donde estará
que me da mucha tristeza
alumbrar con tus faroles
esperando que amanezca

[ch]C#                                      RE[/ch]
Mejillones duerme, duerme, pero duerme como un niño
               [ch]B7                             A[/ch]
despierta Mejillones me dirás aquí tienes mi cariño.
 
 
Lalo Parra - En Mejillones Yo Tuve Un Amor :: indexed at Ultimate Guitar.
En Mejillones Yo Tuve Un Amor tabs @ 911Tabs

Quick tip, so you can enjoy En Mejillones Yo Tuve Un Amor even more:

After the registration (which takes just 10 seconds, remember?) you will be able to use your profile - your very own piece of YourChords.com.

Show us your talent, perform En Mejillones Yo Tuve Un Amor!

Here you can post a video or audio performance. Tell me more ...
Where can we find your performance? Tell me more ...
Your comment:
Please, log in to post your performance.