Artists by letter: A B C D E F G H I J K L M N O P Q R S T U V W X Y Z 0-9

 
Girl Like Me
Hey guys this is my first tab, I pretty much worked this out by ear but In terms of 
timing I'd recommend listening to the song and working that out for yourself.

It's a pretty simple song in the grand scheme of things, there's one recurring riff 
that's played throughout the song and it is in standard tuning.

E|---------------------------------------------------|
B|---------------------------------------------------|
G|---------------------------------------------------|
D|-------------------4---4---4---0---9---9---7---9---|
A|---5---5---5---0---2---2---2---0---7---7---5---7---|
E|---3---3---3---0-----------------------------------|
 
Play the riff throughout the chorus but In the end there is a little quiet bit which 
essentially is the riff but a less heavy and with singular notes.

E|-------------------|
B|-------------------|
G|-------------------|
D|-------------------|
A|-------2-2-7-7-5-7-|
E|-3-3-0-------------|

Pretty much repeat that and there you have it :3
 
 
Ladyhawke - Girl Like Me :: indexed at Ultimate Guitar.
Girl Like Me tabs @ 911Tabs
People who played Ladyhawke - Girl Like Me also played these songs by Ladyhawke:
My Delirium Tab, My Delirium Chords, My Delirium Chords, Crazy World Chords, Magic Acoustic Chords, Magic Chords

Quick tip, so you can enjoy Girl Like Me even more:

Try out the AutoScroller option ... It scrolls the page for you, so you can totally focus on nailing that solo. You can choose among different speeds using your mouse or your keyboard (keys 0, 1, 2 and 3).

Show us your talent, perform Girl Like Me!

Here you can post a video or audio performance. Tell me more ...
Where can we find your performance? Tell me more ...
Your comment:
Please, log in to post your performance.