Artists by letter: A B C D E F G H I J K L M N O P Q R S T U V W X Y Z 0-9

 

Angels Sunday
Angel's Sunday - Kotaro Oshio - Be Happy
Double Dropped D Tuning - DADGBD - Capo Fret 1
BPM = 55



E  S S S S S S    S S S S S E  S    E  S S S S S S    S S S S S E  S  
D||-----------------|-----------------|-----------------|--------2-L------|
B||--7------7-----6-|--L-----6-L------|--5------5-----2-|--L-3-x-3-L-3--0-|
G||--7--7---7-7---6-|--L-6---6-L-6----|--6--6---6-6---2-|--L-2-x-2-L-2--0-|
D||--5--5-----5---5-|--L-5---5-L-5----|--4--4---4-4-----|----4-------4----|
A||--7----7-7-------|--6-------6----5-|--5----5-5-------|--2-------2------|
D||-----------------|-----------------|-----------------|-----------------|

E  S S S S S S    S S S S S E  S    E  S S S S E     Q.     E   
-----------------|-----------------|----------------|------------|
--7------7-----7-|--L-----7-L------|--3----3-L------|------------|
--7--7---7-7---6-|--L-6---6-L-6----|--4----4-L---6--|--L---------|
--5--5-----5---5-|--L-5---5-L-5----|--4----4-L---5--|--L---------|
--7----7-7-------|--0-------0----5-|--5----5-L---6--|--L------0--|
-----------------|-----------------|----------------|------------|

E  E    S  S S S    S S S S S S S S    S  S S S E  S S    S S S S S E  S  
|--------------------|------------------|------------------|-----------------|
|-------------10-x-8-|----7---5---3---5-|--LS-7-7----------|----7------------|
|*--2------------x---|------------------|-----------4--4---|--6---6-4-L-4--0-|
|*--4--4S--11------9-|----7---5---4---5-|--LS-7-7---7--7---|--7-----7-L-7----|
|--------------------|------------------|-----------0------|----------0------|
|---0----------------|--0---------------|--0------0------0-|--0--------------|

E  S S S S S S    S E  S S E  S    S S S S S S S S    S S S S S S S S  
-----------7-----|----------------|----------------5-|--L---------0-----|
-------------x-8-|--L-7---------5-|--L-7-7---7-7---5-|--L-7---5-L-0---0-|
-----------7-x-7-|--L----9-L-7--5-|--L-7-7---5-5---5-|--L-7---5-L-----0-|
--7--7---7-------|----7--7-L-7--5-|--L---------------|------------------|
-----------------|----------------|--0-----0-0---0---|------------------|
--9----9-L-------|--9------9------|------------------|--0---0---0---0-5-|

^                      
  E  S S S S S S    S S S S S S S S    E   E  S  E   S    S  S S S S S S S  
-----------7-----|------------------|--0--------12--11-|--L------5-L-------|
--L--0-----7---5-|--L-7---6-L-7-----|--0---0--0-12--10-|--L-10---5-L-7-x---|
--L--0---7-----6-|--L-7---5-L-6-----|--0---0--0-----11-|--L-11---5-L-5-x---|
-----------------|--------6-L-7-----|------0-----------|-----------------0-|
-----------------|------------------|------------------|-------------------|
--5----0-5-------|--0-------0-----0-|--2S-----9--------|--0--------0-------|

E  S S S S S S    S S S S S S S S    E  S S S S S S    Q    S S S S    
--0--------7-----|------------------|-----------------|----------------||
-----0-----7---5-|--L-7---7-L-------|--8------0---8-7-|--L-------------||
-----0---7-----6-|--L-7---5-L---5---|--7----7---7---6-|--L----x-4-3-2-*||
-----------------|--------7-L-7-----|--5--5---------5-|--L----x-5-4-4-*||
-----------------|----------6-----0-|--7------7-----0-|--L-------------||
--5----5-5-------|--0---------------|-----------------|----------------||

E  S S S E  S    S S S S S E  S    E  S S S S S S    S S S S E  S S  
----------------|-----------------|--4--4-5-L-4---0-|--L-0-----0--2---|
--8--8-7-L-5--5-|--L-5------------|--3--3-3-L-3---0-|--L-0-0---0--2---|
--7--7-7-L-7--7-|--L-7---7-L-6----|--0--0-0-L-0---0-|--L-0-0----------|
--5--5-5-L-5--5-|--L-5---5-L-5--0-|-----------------|-----------------|
--7------7------|--0-------0------|---------2-------|---------------0-|
----------------|-----------------|--2--------------|--2-----2-2------|

E  S S S S S S    S S S S S E  S    E  S S S S S S    S S S S E  S S  
---------------7-|--5--------------|---------------0-|--L-------0------|
--5----7---7---7-|--5-7-5-7---7----|--7--7-8-L-7---0-|--L-----0--------|
--6----7---7-----|----7-6-7---5----|--7--7-7-L-7---0-|--L---0------0---|
-----------------|------------7----|--5--5-5-L-5-----|----0------------|
-----------------|------------6--0-|--7------7-------|--7-------L----0-|
--0--0---0-------|--0--------------|-----------------|-----------------|

v                       
  S S S S S S S S    S S S S S S S  S    E   S S S  S  S S  
----0-----------5-|----7---8-L-9----0-|--L-----------------|
----0---5---7---5-|----7---8-L-9---10-|--L------------10---|
--6-----6---7-----|----------------11-|--L--11--------11-0-|
--7---------------|----------------11-|--L--11-----11------|
--0-------0-------|--0-------0------0-|--L-----0-0---------|
------------------|-------------------|--0-----------------|

^                                                           
   S  S  S  S S  E  S    E  S S S S S S     S  S S S S E  S    E  S S S S S  S  
--14-14-12-11-L-12--9-|--L--------------|--10-10-9-7-L----7-|--L---------------|
--11-11-11-11-L-11--7-|--L--7-----7---0-|--------------7--0-|--L--0-----3---10-|
--11-11-11-11-L-11--7-|--L--7-----7---0-|---9--9-7-5-L-7--7-|--L--7-----4---11-|
----------------------|---------7---7---|-------------------|---------5--------|
----------------------|-------0-L-------|---0---------------|------------------|
---0----------0-------|--0--------------|------------0------|--5----5-L--------|

S  S  S  S S  S S  S    S  S  S  S S  S S S    E  S S S S S S  
----------11-L-12------|----------11-L-12-----|-----------------|
--L-10-10-10-L-10----9-|--L--9--9--9-L--9---8-|--L--8-------8---|
--L-11-11-11-L-11---10-|--L-10-10-10-L-10---7-|--L--7-----7---0-|
-----------------------|--------------------9-|--L------9-------|
-----------------------|----------------------|--7----7-L-------|
--0----------0---------|--9----------9--------|-----------------|

v                                               
   S  S  S  S S  S S  S    E   S S  S  S  S S     S  S  S  S S  E  S  
--12-12-12------------0-|--L------------------|--14-14-12-11-L-12--9-|
--12-12-12-14-L-12---10-|--L-------------10---|--11-11-11-11-L-11--7-|
-----------14-L-12---11-|--L--11------11----0-|--11-11-11-11-L-11--7-|
---------------------11-|--L--11---11---------|----------------------|
---0----------0-------0-|--L-----0--L---------|----------------------|
------------------------|--0------------------|---0----------0-------|

E  S S S S S S     S  S S S S E  S    E  S S S S S  S    
--L--------------|--10-10-9-7-L----7-|--L------------(9)S-|
--L--7-------7-0-|--------------7--0-|--L--0---0-0----9S--|
--L--7-----7---0-|---9--9-7-5-L-7--7-|--L--7---7-7---10---|
---------7-------|-------------------|--------------------|
-------0-L-------|---0---------------|--------------------|
--0--------------|------------0------|--5----5-5----------|

^                    
   S   S  S  S S  S S  S     S  S  S  S S  S S S    E  S S S S S S  
--(9)-------11-L-12---(0)-|--L-------11-L-12-----|-----------------|
--10--10-10-10-L-10----9--|--L--9--9--9-L--9---8-|--L--8-------8---|
--11--11-11-11-L-11---10--|--L-10-10-10-L-10---7-|--L--7-----7-----|
----------0---------------|--------0-----------9-|--L------9-----9-|
--------------------------|----------------------|--7----7-L-------|
---0-----------0----------|--9-------------------|-----------------|

S  S  S  S S  S S  S    E   S S S S S S    S S S S S S S S  
--12-12-12-11-L-14---12-|--L---------------|------------------|
--12-12-12-10-L-14---10-|--L--10---7-7---7-|--L-7---6-L-6---0-|
---------------------11-|--L--11---5-5---7-|--L-7---6-L-6---0-|
------------------------|----------7-7---5-|--L-5---5-L-5-----|
---0----------0---------|--------6-L-------|--7-------0-------|
------------------------|--0---------------|------------------|

^                                               
   S  S  S  S S  S S  S     E   S  S  S  S S  S    S  S S S S  S S S  
--12-12-12-11-L-14---12-|---L-----------12-x----|----12-------12-----|
--12-12-12-10-L-14---12-|---L--12----12----x-10-|--L----x-9-L----x---|
---------------------11-|---L--11----11-------9-|--L----x-8-L----x---|
------------------------|-----------------------|------------------0-|
---0----------0---------|--10-----10-10-------9-|--L------8-L--------|
------------------------|-----------------------|--------------------|

E  S S S S S S    S E   S S  S S S     E   S  S  S  S  S  S  
-----------------|-------------------|------12-------12-------|
--8--8---7-5-x-7-|--L-8--10-L-10-x-0-|--12--------12----12-10-|
--7--7---6-6-x-6-|--L-7---9-L--9-x-0-|--11--------11--------9-|
--9--9---5-5---7-|--L-9--10-L--------|------------------------|
--7----0-0-----5-|--L-7---9-L--------|--10-----10-10--------9-|
-----------------|-------------------|------------------------|

^        
  S  S S S S  S S S    E  S S E  S S    E  Q.       
----12-x-----12-x---|----------------|------------||
--L----x-9-L----x---|--8----7----3---|-----5------||
--L------8-L--------|--7----6----4---|-----6------||
------------------0-|--9----5----4---|-----4------||
--L------8-L--------|--7----0----5---|-----5------||
--------------------|----------------|------------||



Duration Legend
---------------
W - whole
H - half
Q - quarter
E - 8th
S - 16th
T - 32nd
X - 64th
. - note dotted
|-n-|  - n-tuplets

Tablature Legend
----------------
L - tied note
x - dead note
g - grace note
(n) - ghost note
> - accentuded note
NH - natural harmonic
AH - artificial harmonic
TH - tapped harmonic
SH - semi harmonic
PH - pitch harmonic
h - hammer on
p - pull off
b - bend
br - bendRelease
pb - preBend
pbr - preBendRelease
brb - bendReleaseBend
\n/ - tremolo bar dip
\n - tremolo bar dive
-/n - tremolo bar Release up
/n\ - tremolo bar inverted dip
/n - tremolo bar return
-\n - tremolo bar Release down
S - shift slide
s - legato slide
/ -  slide into from below or out of upwards
\ -  slide into from above or out of downwards
~ - vibrato
W - wide vibrato
tr - trill
TP - tremolo picking
T - tapping
S - slap
P - pop
< - fade in
^ - brush up
v - brush down

 
 
Kotaro Oshio - Angels Sunday :: indexed at Ultimate Guitar.
Angels Sunday tabs @ 911Tabs
People who played Kotaro Oshio - Angels Sunday also played these songs by Kotaro Oshio:
First Love Tab, Twilight Tab, Canon Tab, Wings You Are The Hero Tab, Oasis Tab, Promises Tab

About the artist behind Angels Sunday:

Kotaro Oshio (押尾コータロー, Oshio Kōtarō?) is an acoustic guitarist from Japan. Born in Osaka, on February 1, 1968, he is best known for his work on the steel string guitar.

Indexed at Wikipedia.

Show us your talent, perform Angels Sunday!

Here you can post a video or audio performance. Tell me more ...
Where can we find your performance? Tell me more ...
Your comment:
Please, log in to post your performance.