Artists by letter: A B C D E F G H I J K L M N O P Q R S T U V W X Y Z 0-9

 
Paat Pois Tai Hirteen
Song: Päät Pois Tai Hirteen
Band: Korpiklaani
Album: Ukon Wacka
Year: 2011
Tabber: [email protected]



Intro (0:00)

   G
e-----------------|
b-----------------|
g-----------------|
d----5-5-5-3-5----|      x2
a-----------------|
e--3-----------3--|
                x3

Perkele!



Riff (0:15)

   G
e-----------------|----------------------|
b-----------------|----------------------|
g-----------------|----------------------|    x2
d----5-5-5-3-5----|----------------------|
a-----------------|----------------------|
e--3-----------3--|--3--3-6-3-1-3-6-3-1--|
                x3



Verse (0:28)

G
Pelto Routii
G
Hevonen Kuoli
G
Talikko Taipuja Katkes
G
Navetta Sortuu
G
Sarka-Aura Ruostuu
G
Emäntä Hyppäs A.I.V. Hautaan



Verse (0:42)

G
Sonnil'Ei Seiso
G
Ammut Ei Anna
G
Kukko Koisii Puolipäivään
G
Kaura Ei Kasva
G
Paska Haisee
G
Tukiaiset Tänne Tai Mie Ammun



Prechorus (0:54)


F                                G
Aivoton Ja Päätön Maan Johto On
F                                G
Aivoton Ja Päätön Maan Johto On



Verse (1:05)

G
Vouti Nouti
G
Pirtutehtaan
G
Polki Paskaks Pitkin Pirhaa
G
Kakarat Huutaa
G
Kaurapuuroo
G
Vaikk'Ei Oo Viinantippaa



Prechorus (1:19)

F                                G
Aivoton Ja Päätön Maan Johto On
F                                G
Aivoton Ja Päätön Maan Johto On



Bridge (1:31)

F Bb C
F Bb C
F Bb C
    
   F                   G
e-------------------|-----|
b-------------------|-----|
g-------------------|-----|
d----3-3---3-3---3--|--5--|
a--5-----5-----5----|-----|
e-------------------|-----|
                           Ei Kun!



Chorus (1:44)

G
Päät Pois Tai Hirteen
G
Päät Pois Tai Hirteen
G
Päät Pois Tai Hirteen
F
Sitä Mieltä Minä Oon

G
Päät Pois Tai Hirteen
G
Päät Pois Tai Hirteen
G
Päät Pois Tai Hirteen
F                  C
Aivoton Maan Johto On 



Solo (2:01)

G A A G A A  G  D  G A A 
G A A G A A  G  D  G A A 
G A A G A A  G  D  G A A 
G A A G A A  G  D  G A A 

   F                   G
e-------------------|-----|
b-------------------|-----|
g-------------------|-----|
d----3-3---3-3---3--|--5--|
a--5-----5-----5----|-----|
e-------------------|-----|
                           Ei Kun!



Chorus (2:31)

G
Päät Pois Tai Hirteen
G
Päät Pois Tai Hirteen
G
Päät Pois Tai Hirteen
F
Sitä Mieltä Minä Oon

G
Päät Pois Tai Hirteen
G
Päät Pois Tai Hirteen
G
Päät Pois Tai Hirteen
F
Sitä Mieltä Minä Oon



Chorus (2:44)

G
Päät Pois Tai Hirteen
G
Päät Pois Tai Hirteen
G
Päät Pois Tai Hirteen
F
Sitä Mieltä Minä Oon

G
Päät Pois Tai Hirteen
G
Päät Pois Tai Hirteen
G
Päät Pois Tai Hirteen
F
Sitä Mieltä Minä Oon



Outro (2:57)

   F                   G
e-------------------|-----|
b-------------------|-----|
g-------------------|-----|
d----3-3---3-3---3--|--5--|
a--5-----5-----5----|-----|
e-------------------|-----|
                  x2

G G G G 



End (3:10)

G
 
 
Korpiklaani - Paat Pois Tai Hirteen :: indexed at Ultimate Guitar.
Paat Pois Tai Hirteen tabs @ 911Tabs
People who played Korpiklaani - Paat Pois Tai Hirteen also played these songs by Korpiklaani:
Vodka Tab, Vodka Chords, Juodaan Viinaa Chords, Wooden Pints Chords, Wooden Pints Tab, Happy Little Boozer Tab

About the artist behind Paat Pois Tai Hirteen:

Korpiklaani is a folk metal band from Finland, formerly known as Shaman. The name Korpiklaani means Woodsclan in the Finnish language.[1]

Indexed at Wikipedia.

Show us your talent, perform Paat Pois Tai Hirteen!

Here you can post a video or audio performance. Tell me more ...
Where can we find your performance? Tell me more ...
Your comment:
Please, log in to post your performance.