Artists by letter: A B C D E F G H I J K L M N O P Q R S T U V W X Y Z 0-9

Sols El Poble Salva Al Poble - Kop


 
Sols El Poble Salva Al Poble
Intro :  C      D#      G# x4

Distorsión :  C     G#    A#    G#GFA#
                     C     G#    D#     A#  x 2   entra el solo por debajo
Solo:

E|--------------------------------------
B|---------------------------8-9-8------
G|--10-8-10-8888-7--10-8-10-8-----10-8--
D|----8-----------8---8-----------------
A|--------------------------------------
E|--------------------------------------

E|--------------------------------------------
B|---------------------------8-9-8-9-8--------
G|--10-8-10-8888-7--10-8-10-8-----------------
D|----8-----------8---8-----------------------
A|--------------------------------------------
E|--------------------------------------------


Solo toca el bajo

Comissaries enfangades
clavegueres del poder
jutges per la corrupció
falsocràcia del Govern         entra el solo
I els polítics del moment
diuen que tot està bé
silenciant la dissidència
fils de ferro George Orwell.


Distorsión :  C     G#    A#    G#GFA#
                     C     G#    D#     A#


Solo toca el bajo

Militars imperialistes
ens imposen la veritat
presons són els arguments
dels funcionaris de l´Estat        entra el solo
ETT´s explotadores
patronal neoliberal
sindicats que estan pactant
és la llei del capital.

Distorsión :  C     G#    A#    G#GFA#
                     C     G#    D#     A#


Solo :

E|-------------/-----------------
B|-------------/-8-6-4-----------
G|---8-8-8-810-/-8--7-5-5--------
D|-------------/-----------------
A|-------------/-----------------
E|-------------/-----------------

A partir de las rallas verticales se repite la parte 4 veces


Intro :  C    D#    G#   x4

C        D#     G#

Y una vez más,
y una vez más,
y una vez más,
sólo el pueblo salva el pueblo,

Distorsión :  C   G#    A#    G#GFA#
                     C     G#    D#     A#

sólo el pueblo salva el pueblo,
sólo el pueblo salva el pueblo,
sólo el pueblo salva el pueblo,
herriak bakarrik salba dezake herria

salba dezake herria      entra el solo primero
salba dezake herria
herriak bakarrik
salba dezake herria
herriak bakarrik
salba dezake herria


Para cualquier problema consultarme en   [email protected]
dedicarsela a Kamil el profe de guitarra.
Las guitarras en esta canción no estan afinadas como de normal.
Suelen gastar guitarras de 7 cuerdas, es lo más parecido.

      VISCA LA TERRA LLUIRE !
 
 
Kop - Sols El Poble Salva Al Poble :: indexed at Ultimate Guitar.
Sols El Poble Salva Al Poble tabs @ 911Tabs
People who played Kop - Sols El Poble Salva Al Poble also played these songs by Kop:
Sols El Poble Salva Al Poble Tab, Leitmotiv Chords, No Te Rindas Chords, Desalojos Son Disturbios Chords, No Te Rindas, Leitmotiv

Quick tip, so you can enjoy Sols El Poble Salva Al Poble even more:

Try out the AutoScroller option ... It scrolls the page for you, so you can totally focus on nailing that solo. You can choose among different speeds using your mouse or your keyboard (keys 0, 1, 2 and 3).

Show us your talent, perform Sols El Poble Salva Al Poble!

Here you can post a video or audio performance. Tell me more ...
Where can we find your performance? Tell me more ...
Your comment:
Please, log in to post your performance.