Artists by letter: A B C D E F G H I J K L M N O P Q R S T U V W X Y Z 0-9

 
Invencible
Intro
  Am
E|----------------3-0----------------------|
B|---1-0-1-0h1-------3--1-0-1-0h1--1-0-----|
G|--2------------2-----2----------2---2----|
D|-2------------2-----2----------2---------|
A|-----------------------------------------|
E|-----------------------------------------|

E|------------3-0----------------|
B|---1-0-1-------3--1-0-1---1-0--|
G|--2--------2-----2-------2---2-|
D|-2--------2-----2-------2------|
A|-------------------------------|
E|-------------------------------|
Quien lo diría, paso lo que tanto temía
enamorarme de nuevo de la misma persona
dime quien lo diría..
                    Am
Se que es un poco difícil estar en tu lugar
                 G
tu solo quieres amar y el mundo piensa en jugar...
              C
Te quedan puertas por abrir montón de brechas por seguir
  F
y no dejare que te pase nada

(Los Mismos Acordes)
Es que me siento invencible cuando estoy cerca de ti,
tocarte es irresistible tú te apoderas de mi..
Mi pulso se ha acelerado contigo a mi lado me siento
invencible
es que me siento inmune a la amargura..
Se hace invencible el dolor, invencible la cordura
mi pulso se ha acelerado contigo a mi lado me siento
invencible..

(Los Mismos Acordes)
Y yo moría, moría por lo que sentías
eres el ángel guardián que todos los sueños me guía
pastilla que me hace efecto mi vitamina
la que me pone a full tono, mi estamina
y aunque moría, y aunque dolía pensaba en ti todos
los días

  Dm                             G
soñando en que mi sueños se volvieran deja vu y
   C                                      Am
pensando en los ojos y decirte que no hay nadie como tu
             Dm
cruzando los dedos de manera en que
   G
la suerte me acompañara
    C                                        Am
por golpe d esa misma suerte jamás pensé que todo resultara
       Dm                        G
es increíble pero me siento invencible..

E|------------3-0----------------|
B|---1-0-1-------3--1-0-1---1-0--|
G|--2--------2-----2-------2---2-|
D|-2--------2-----2-------2------|
A|-------------------------------|
E|-------------------------------|
Es que me siento invencible cuando estoy cerca de ti,
tocarte es irresistible tu te apoderas d mi..
mi pulso se ha acelerado contigo a mi lado me siento
invencible
es que me siento inmune a la amargura..
se hace invencible el dolor, invencible la cordura
mi pulso se ha acelerado contigo a mi lado me siento
invencible
               Am
me siento invencible.
 
 
Koonze Family - Invencible :: indexed at Ultimate Guitar.
Invencible tabs @ 911Tabs
People who played Koonze Family - Invencible also played these songs by Koonze Family:
Algo Bonito Chords, Estar Contigo Chords, Invencible Tab, Estar Contigo, Algo Bonito

Quick tip, so you can enjoy Invencible even more:

If you don't really know how to deal with "Absus4" chord and his equally confusing brothers, just put the mouse cursor over them and you will be shown a helpful chord diagram.

Show us your talent, perform Invencible!

Here you can post a video or audio performance. Tell me more ...
Where can we find your performance? Tell me more ...
Your comment:
Please, log in to post your performance.