Artists by letter: A B C D E F G H I J K L M N O P Q R S T U V W X Y Z 0-9

 
Colors
Tuning: capo on 6th
4/4

e|---------3-------|---------3-------|---------0-------|---------------------|
B|-----0-------0---|-----0-------0---|-----3-------3---|-----1-------1-------|
G|---0---0---0---0-|---0---0---0---0-|---2---2---2---2-|---0---0---0---0-----|
D|-----------------|-----------------|-0---------------|---------------------|
A|-----------------|-2---------------|-----------------|-3-------2-----------|
E|-3---------------|-----------------|-----------------|--------------------
e||---------3-------|---------3-------|---------0-------|---------------------|
B||-----0-------0---|-----0-------0---|-----3-------3---|-----1-------1-------|
G||---0---0---0---0-|---0---0---0---0-|---2---2---2---2-|---0---0---0---0-----|
D||-----------------|-----------------|-0---------------|---------------------|
A||-----------------|-2---------------|-----------------|-3-------2-----------|
E||-3---------------|-----------------|-----------------|---------------------|

e|---------3-------|---------3-------|---------0-------|---------------------|
B|-----0-------0---|-----0-------0---|-----3-------3---|-----1-------1-------|
G|---0---0---0---0-|---0---0---0---0-|---2---2---2---2-|---0---0---0---0-----|
D|-----------------|-----------------|-0---------------|---------------------|
A|-----------------|-2---------------|-----------------|-3-------2-----------|
E|-3---------------|-----------------|-----------------|---------------------|

e|---------3-------|---------3-------|---------0-------|---------0-----------|
B|-----0-------0---|-----0-------0---|-----3-------3---|-----1-------1-------|
G|---0---0---0---0-|---0---0---0---0-|---2---2---2---2-|---0---0---0---0-----|
D|-----------------|-----------------|-0---------------|---------------------|
A|-----------------|-2---------------|-----------------|-3-------------------|
E|-3---------------|-----------------|-----------------|---------------------|

e|---------0-------|---------0-------|---------0-------|---------2-----------|
B|-----1-------1---|-----1-------1---|-----1-------1---|-----1-------2-------|
G|---0---0---0---0-|---2---2---2---2-|---2---2---2---2-|---2---2---2---2-----|
D|-----------------|-0---------------|-0---------------|-0-------------------|
A|-3---------------|-----------------|-----------------|---------------------|
E|-----------------|-----------------|-----------------|--------------------
e||---------3-------|---------3-------|---------0-------|---------------------|
B||-----0-------0---|-----0-------0---|-----3-------3---|-----1-------1-------|
G||---0---0---0---0-|---0---0---0---0-|---2---2---2---2-|---0---0---0---0-----|
D||-----------------|-----------------|-0---------------|---------------------|
A||-----------------|-2---------------|-----------------|-3-------2-----------|
E||-3---------------|-----------------|-----------------|---------------------|

e|---------3-------|---------3-------|---------0-------|---------------------|
B|-----0-------0---|-----0-------0---|-----3-------3---|-----1-------1-------|
G|---0---0---0---0-|---0---0---0---0-|---2---2---2---2-|---0---0---0---0-----|
D|-----------------|-----------------|-0---------------|---------------------|
A|-----------------|-2---------------|-----------------|-3-------2-----------|
E|-3---------------|-----------------|-----------------|---------------------|

e|---------3-------|---------3-------|---------0-------|---------0-----------|
B|-----0-------0---|-----0-------0---|-----3-------3---|-----1-------1-------|
G|---0---0---0---0-|---0---0---0---0-|---2---2---2---2-|---0---0---0---0-----|
D|-----------------|-----------------|-0---------------|---------------------|
A|-----------------|-2---------------|-----------------|-3-------------------|
E|-3---------------|-----------------|-----------------|---------------------|

e|---------0-------|---------0-------|---------0-------|---------2-----------|
B|-----1-------1---|-----1-------1---|-----1-------1---|-----1-------2-------|
G|---0---0---0---0-|---2---2---2---2-|---2---2---2---2-|---2---2---2---2-----|
D|-----------------|-0---------------|-0---------------|-0-------------------|
A|-3---------------|-----------------|-----------------|---------------------|
E|-----------------|-----------------|-----------------|---------------------|

e|---------0-------|---------0-------|---------3-------|----------3----------|
B|-----1-------1---|-----1-------1---|-----0-------0---|-----0----0----------|
G|---0---0---0---0-|---0---0---0---0-|---0---0---0---0-|---0---0--0----------|
D|-----------------|-----------------|-----------------|----------0----------|
A|-3---------------|-3---------------|-----------------|----------2----------|
E|-----------------|-----------------|-3---------------|-3--------3----------|


 
 
Kira Willey - Colors :: indexed at Ultimate Guitar.
Colors tabs @ 911Tabs
People who played Kira Willey - Colors also played these songs by Kira Willey:
Colors Chords, Colors Tab, Colors Chords, Colors

Quick tip, so you can enjoy Colors even more:

If you don't really know how to deal with "Absus4" chord and his equally confusing brothers, just put the mouse cursor over them and you will be shown a helpful chord diagram.

Show us your talent, perform Colors!

Here you can post a video or audio performance. Tell me more ...
Where can we find your performance? Tell me more ...
Your comment:
Please, log in to post your performance.