Artists by letter: A B C D E F G H I J K L M N O P Q R S T U V W X Y Z 0-9

 
Sambita
esta cancion se la quiero dedicar a mi chava montse t.q.m.


se toca con un ligero delay
5 dedos nocturnos
e --------------------------------------------------------
b --------------------------------------------------------
g -12--12--13--12--13-------------------------------------
d 11-11---------------12--13--12--11--10--9--7--8--8--7--8
a --------------------------------------------------------
e --------------------------------------------------------

shabadada papa

e --------------------------------------------------------
b --------------------------------------------------------
g --------------------------------------------------------
d 13x6--14--x-x-x-15-14-x-x-x-14-13-12-x-x-x-10-11x2-10-11
a --------------------------------------------------------
e --------------------------------------------------------

e --------------------------------------------------------
b --------------------------------------------------------
g --------------------------------------------------------
d 12--11-12x3--1010--12--11--10--9--8--7--8--6--7--8--
a --------------------------------------------------------
e --------------------------------------------------------

e --------------------------------------------------------
b --------------------------------------------------------
g --------------------------------------------------------
d 7--6--13x3--9--8--7--6-------10x3----------9x3------9-8-9
a -------------------------7>9---------7--8------7--8-----
e --------------------------------------------------------

e --------------------------------------------------------
b --------------------------------------------------------
g --------------------------------------11--12--10--11----
d -------9x3------9-8-9-------9x3--10x2-------------------
a ---7-8------7-8---------7-8-----------------------------
e --------------------------------------------------------

nostalgia es lo que siente mi ....

e --------------------------------------------------------
b --------------------------------------------------------
g ----10-----11---12----13----14---15----14---------------
d 5>9-----9-----9----10----11----12---13----16------------ x4
a --------------------------------------------------------
e --------------------------------------------------------

         
 
 
Kinky - Sambita :: indexed at Ultimate Guitar.
Sambita tabs @ 911Tabs
People who played Kinky - Sambita also played these songs by Kinky:
Ejercicio 16 Bass Tab, Presidente Bass Tab, Sambita Tab, Salta-Lenin-el-Atlas Tab, Salta-Lenin-El-Atlas

Quick tip, so you can enjoy Sambita even more:

You might want to transpose the song if it is too high or too low for you to sing. Just click the desired option while playing a song and all the chords will automatically be transponded into a new key.

Show us your talent, perform Sambita!

Here you can post a video or audio performance. Tell me more ...
Where can we find your performance? Tell me more ...
Your comment:
Please, log in to post your performance.