Artists by letter: A B C D E F G H I J K L M N O P Q R S T U V W X Y Z 0-9

 
Wicked Game
----------------------------------------------------------------------------
                             Wicked Game - His Infernal Majesty
----------------------------------------------------------------------------
Tabbed by: SchismNihilisti
Tuning:Standard

e|--2-2-2-2-2-2-2-2--------------------------------------------------------|
B|--3-3-3-3-3-3-3-3--2-2-2-2-2-2-2-2---------------------------------------|
G|--4-4-4-4-4-4-4-4--2-2-2-2-2-2-2-2--1-1-1-1-1-1-1-1-1-1-1-1-1-1-1-1------|
D|--4-4-4-4-4-4-4-4--2-2-2-2-2-2-2-2--2-2-2-2-2-2-2-2-2-2-2-2-2-2-2-2------|
A|--2-2-2-2-2-2-2-2-------------------2-2-2-2-2-2-2-2-2-2-2-2-2-2-2-2------|
E|--X-X-X-X-X-X-X-X--------------------------------------------------------|

e|--2-2-2-2-2-2-2-2--------------------------------------------------------|
B|--3-3-3-3-3-3-3-3--2-2-2-2-2-2-2-2---------------------------------------|
G|--4-4-4-4-4-4-4-4--2-2-2-2-2-2-2-2--1-1-1-1-1-1-1-1-1-1-1-1-1-1-1-1------|
D|--4-4-4-4-4-4-4-4--2-2-2-2-2-2-2-2--2-2-2-2-2-2-2-2-2-2-2-2-2-2-2-2------|
A|--2-2-2-2-2-2-2-2-------------------2-2-2-2-2-2-2-2-2-2-2-2-2-2-2-2------|
E|--X-X-X-X-X-X-X-X--------------------------------------------------------|

e|--2-2-2-2-2-2-2-2--------------------------------------------------------|
B|--3-3-3-3-3-3-3-3--2-2-2-2-2-2-2-2---------------------------------------|
G|--4-4-4-4-4-4-4-4--2-2-2-2-2-2-2-2--1-1-1-1-1-1-1-1-1-1-1-1-1-1-1-1------|
D|--4-4-4-4-4-4-4-4--2-2-2-2-2-2-2-2--2-2-2-2-2-2-2-2-2-2-2-2-2-2-2-2------|
A|--2-2-2-2-2-2-2-2-------------------2-2-2-2-2-2-2-2-2-2-2-2-2-2-2-2------|
E|--X-X-X-X-X-X-X-X--------------------------------------------------------|

e|--2-2-2-2-2-2-2-2--------------------------------------------------------|
B|--3-3-3-3-3-3-3-3--2-2-2-2-2-2-2-2---------------------------------------|
G|--4-4-4-4-4-4-4-4--2-2-2-2-2-2-2-2--1-1-1-1-1-1-1-1-1-1-1-1-1-1-1-1------|
D|--4-4-4-4-4-4-4-4--2-2-2-2-2-2-2-2--2-2-2-2-2-2-2-2-2-2-2-2-2-2-2-2------|
A|--2-2-2-2-2-2-2-2-------------------2-2-2-2-2-2-2-2-2-2-2-2-2-2-2-2------|
E|--X-X-X-X-X-X-X-X--------------------------------------------------------|

e|--2-2-2-2-2-2-2-2--------------------------------------------------------|
B|--3-3-3-3-3-3-3-3--2-2-2-2-2-2-2-2---------------------------------------|
G|--4-4-4-4-4-4-4-4--2-2-2-2-2-2-2-2--1-1-1-1-1-1-1-1-1-1-1-1-1-1-1-1------|
D|--4-4-4-4-4-4-4-4--2-2-2-2-2-2-2-2--2-2-2-2-2-2-2-2-2-2-2-2-2-2-2-2------|
A|--2-2-2-2-2-2-2-2-------------------2-2-2-2-2-2-2-2-2-2-2-2-2-2-2-2------|
E|--X-X-X-X-X-X-X-X--------------------------------------------------------|

e|--2-2-2-2-2-2-2-2--------------------------------------------------------|
B|--3-3-3-3-3-3-3-3--2-2-2-2-2-2-2-2---------------------------------------|
G|--4-4-4-4-4-4-4-4--2-2-2-2-2-2-2-2--1-1-1-1-1-1-1-1-1-1-1-1-1-1-1-1------|
D|--4-4-4-4-4-4-4-4--2-2-2-2-2-2-2-2--2-2-2-2-2-2-2-2-2-2-2-2-2-2-2-2------|
A|--2-2-2-2-2-2-2-2-------------------2-2-2-2-2-2-2-2-2-2-2-2-2-2-2-2------|
E|--X-X-X-X-X-X-X-X--------------------------------------------------------|

e|--2-2-2-2-2-2-2-2--------------------------------------------------------|
B|--3-3-3-3-3-3-3-3--2-2-2-2-2-2-2-2---------------------------------------|
G|--4-4-4-4-4-4-4-4--2-2-2-2-2-2-2-2--1-1-1-1-1-1-1-1-1-1-1-1-1-1-1-1------|
D|--4-4-4-4-4-4-4-4--2-2-2-2-2-2-2-2--2-2-2-2-2-2-2-2-2-2-2-2-2-2-2-2------|
A|--2-2-2-2-2-2-2-2-------------------2-2-2-2-2-2-2-2-2-2-2-2-2-2-2-2------|
E|--X-X-X-X-X-X-X-X--------------------------------------------------------|

e|--2-2-2-2-2-2-2-2--------------------------------------------------------|
B|--3-3-3-3-3-3-3-3--2-2-2-2-2-2-2-2---------------------------------------|
G|--4-4-4-4-4-4-4-4--2-2-2-2-2-2-2-2--1-1-1-1-1-1-1-1-1-1-1-1-1-1-1-1------|
D|--4-4-4-4-4-4-4-4--2-2-2-2-2-2-2-2--2-2-2-2-2-2-2-2-2-2-2-2-2-2-2-2------|
A|--2-2-2-2-2-2-2-2-------------------2-2-2-2-2-2-2-2-2-2-2-2-2-2-2-2------|
E|--X-X-X-X-X-X-X-X--------------------------------------------------------|



Solo:

e|-------------------------------------------------------------------------|
B|-------------------------------------------------------------------------|
G|--9bhold-9b--------------------------------------------------------------|
D|-------------9---------7-----6/7\6---------------------------------------|
A|---------------7/9\7-----9-----------------------------------------------|
E|-------------------------------------------------------------------------|

e|-------------------------------------------------------------------------|
B|-------------------------------------------------------------------------|
G|--9bhold-9b--------------------------------------------------------------|
D|-------------9---------7-----6/7\6---------------------------------------|
A|---------------7/9\7-----9-----------------------------------------------|
E|-------------------------------------------------------------------------|

e|-------------------------------------------------------------------------|
B|--------7-----------5----------------------------------------------------|
G|---------7-----------5---------------------------------------------------|
D|--6/9------9--5/7-----7---11\9----------7---6~~~-------------------------|
A|---------------------------------7/9\7---9-------------------------------|
E|-------------------------------------------------------------------------|

End Solo:

e|--2-2-2-2-2-2-2-2--------------------------------------------------------|
B|--3-3-3-3-3-3-3-3--2-2-2-2-2-2-2-2---------------------------------------|
G|--4-4-4-4-4-4-4-4--2-2-2-2-2-2-2-2--1-1-1-1-1-1-1-1-1-1-1-1-1-1-1-1------|
D|--4-4-4-4-4-4-4-4--2-2-2-2-2-2-2-2--2-2-2-2-2-2-2-2-2-2-2-2-2-2-2-2------|
A|--2-2-2-2-2-2-2-2-------------------2-2-2-2-2-2-2-2-2-2-2-2-2-2-2-2------|
E|--X-X-X-X-X-X-X-X--------------------------------------------------------|

e|--2-2-2-2-2-2-2-2--------------------------------------------------------|
B|--3-3-3-3-3-3-3-3--2-2-2-2-2-2-2-2---------------------------------------|
G|--4-4-4-4-4-4-4-4--2-2-2-2-2-2-2-2--1-1-1-1-1-1-1-1-1-1-1-1-1-1-1-1------|
D|--4-4-4-4-4-4-4-4--2-2-2-2-2-2-2-2--2-2-2-2-2-2-2-2-2-2-2-2-2-2-2-2------|
A|--2-2-2-2-2-2-2-2-------------------2-2-2-2-2-2-2-2-2-2-2-2-2-2-2-2------|
E|--X-X-X-X-X-X-X-X--------------------------------------------------------|

e|--2-2-2-2-2-2-2-2--------------------------------------------------------|
B|--3-3-3-3-3-3-3-3--2-2-2-2-2-2-2-2---------------------------------------|
G|--4-4-4-4-4-4-4-4--2-2-2-2-2-2-2-2--1-1-1-1-1-1-1-1-1-1-1-1-1-1-1-1------|
D|--4-4-4-4-4-4-4-4--2-2-2-2-2-2-2-2--2-2-2-2-2-2-2-2-2-2-2-2-2-2-2-2------|
A|--2-2-2-2-2-2-2-2-------------------2-2-2-2-2-2-2-2-2-2-2-2-2-2-2-2------|
E|--X-X-X-X-X-X-X-X--------------------------------------------------------|

e|--2-2-2-2-2-2-2-2--------------------------------------------------------|
B|--3-3-3-3-3-3-3-3--2-2-2-2-2-2-2-2---------------------------------------|
G|--4-4-4-4-4-4-4-4--2-2-2-2-2-2-2-2--1-1-1-1-1-1-1-1-1-1-1-1-1-1-1-1------|
D|--4-4-4-4-4-4-4-4--2-2-2-2-2-2-2-2--2-2-2-2-2-2-2-2-2-2-2-2-2-2-2-2------|
A|--2-2-2-2-2-2-2-2-------------------2-2-2-2-2-2-2-2-2-2-2-2-2-2-2-2------|
E|--X-X-X-X-X-X-X-X--------------------------------------------------------|

e|--2-2-2-2-2-2-2-2--------------------------------------------------------|
B|--3-3-3-3-3-3-3-3--2-2-2-2-2-2-2-2---------------------------------------|
G|--4-4-4-4-4-4-4-4--2-2-2-2-2-2-2-2--1-1-1-1-1-1-1-1-1-1-1-1-1-1-1-1------|
D|--4-4-4-4-4-4-4-4--2-2-2-2-2-2-2-2--2-2-2-2-2-2-2-2-2-2-2-2-2-2-2-2------|
A|--2-2-2-2-2-2-2-2-------------------2-2-2-2-2-2-2-2-2-2-2-2-2-2-2-2------|
E|--X-X-X-X-X-X-X-X--------------------------------------------------------|

e|--2-2-2-2-2-2-2-2--------------------------------------------------------|
B|--3-3-3-3-3-3-3-3--2-2-2-2-2-2-2-2---------------------------------------|
G|--4-4-4-4-4-4-4-4--2-2-2-2-2-2-2-2--1-1-1-1-1-1-1-1-1-1-1-1-1-1-1-1------|
D|--4-4-4-4-4-4-4-4--2-2-2-2-2-2-2-2--2-2-2-2-2-2-2-2-2-2-2-2-2-2-2-2------|
A|--2-2-2-2-2-2-2-2-------------------2-2-2-2-2-2-2-2-2-2-2-2-2-2-2-2------|
E|--X-X-X-X-X-X-X-X--------------------------------------------------------|

|| /  slide up
| \  slide down
| h  hammer-on
| p  pull-off
| ~  vibrato
| +  harmonic
| x  Mute note
=============================================================================
 
 
Him - Wicked Game :: indexed at Ultimate Guitar.
Wicked Game tabs @ 911Tabs

Quick tip, so you can enjoy Wicked Game even more:

If you don't really know how to deal with "Absus4" chord and his equally confusing brothers, just put the mouse cursor over them and you will be shown a helpful chord diagram.

Show us your talent, perform Wicked Game!

Here you can post a video or audio performance. Tell me more ...
Where can we find your performance? Tell me more ...
Your comment:
Please, log in to post your performance.