Artists by letter: A B C D E F G H I J K L M N O P Q R S T U V W X Y Z 0-9

Sleepwalking Past Hope (ver 2) - Him


 
Sleepwalking Past Hope
e|------------------------------------|
b|------------------------------------|
g|------------------------------------|
d|------------------------------------|
a|-\-\-\-\-\-\-\-\-\-\-\-\-\-\--------|
e|-/-/-/-/-/-/-/-/-/-/-/-/-/-/--------|

e|---------------------------------|
b|---------------------------------|
g|---------------------------------|x2
d|------5--5------5--5--5-4-5-7-5--|
a|-3--3--3---3--3--3----3-2-3-5-3--|
e|---------------------------------|

e|-----------------------------------------|
b|-----------------------------------------|
g|-----------------------------------------|
d|------5--5------5--3--5-4-5-7-5-7-5-7----|
a|-3--3--3---3--3--3----3-2-3-5-3-5-3-5----|
e|-----------------------------------------|

e|------------------------------------|
b|------------------------------------|
g|------------------------------------|x3
d|------5--5------5--5--5-4-5-7-5-----|
a|-3--3--3---3--3--3----3-2-3-5-3-----|
e|------------------------------------|

e|-----------------|
b|-----------------|
g|-----------------|
d|-5-4-3------5----|
a|-3-2-1--3b--3----|
e|-----------------|

e|--------------------------------------------------|
b|--------------------------------------------------|
g|--------------------------------------------------|x3
a|--------------------------------------------------|
d|--------------------------------------------------|
a|-9-9-9-9-9-9-9-9--7-7-7-7-7-7-7-7--5-5-5-5-5-5----|
e|-7-7-7-7-7-7-7-7--5-5-5-5-5-5-5-5--3-3-3-3-3-3----|

e|----------------------|
b|----------------------|
g|----------------------|
d|----------------------|
a|-5-5--3h5--3-3-3-5----|
e|-3-3--3h5--3-3-3-3----|

e|---------------------------------------------|
b|---------------------------------------------|
g|---------------------------------------------|
d|---------------------------------------------|
a|-9-9-9-9-9-9-9-9--7-7-7-7-7-7-7-7--5-5-5-5---|
e|-7-7-7-7-7-7-7-7--5-5-5-5-5-5-5-5--3-3-3-3---|

e|----------------------|
b|----------------------|
g|----------------------|x2
d|----------------------|
a|---5-5---5-3-5-3-5----|
e|-3--3-3-3-------------|

e|---------------------|
b|---------------------|
g|---------------------|
d|---------------------|
a|-\-\-\-\-\-\-\-------|
e|-/-/-/-/-/-/-/-------|

e|-----------------------|
b|-----------------------|
g|-----------------------|
d|-----------------------|
a|----5-5---5---4-2--4-5-|
e|-3---3-3-3---2-2--2-2--|
 solo
e|------------------------------------------------------|
b|------------------------------------------------------|
g|------------------------------------------------------|
d|-5-5-5h7-5-4-5-3-3h5-3-2-5h7-7h9-7h9-7h9-7h9-5h7-4b---|
a|------------------------------------------------------|
e|------------------------------------------------------|

e|-------------------------------------------------------------------|
b|------------------7-9-10-9h11-9h11-9h11-9h11-9h11-9h11-9h11-[11]---|
g|-3b-5-7-5-4-5-2-3--------------------------------------------------|
d|-------------------------------------------------------------------|
a|-------------------------------------------------------------------|
e|-------------------------------------------------------------------|

e|---------------------|
b|---------------------|
g|---------------------|x2
d|----11--11--11-9-----|
a|-9b----9---9---------|
e|---------------------|

e|----------------------------|
b|-----------------12b-[11]---|
g|----------------------------|
d|-11-9--8-6--6-4-------------|
a|------6----4----------------|
e|----------------------------|

e|-------------------------|
b|-------------------------|
g|-------------------------|x4
d|-3-3-3-3--2--3-3-3--2----|
a|-3-3-3-3--2--3-3-3--2----|
e|-3-3-3-3--2--3-3-3--2----|
   ' ' ' '     ' ' '

e|-9h12p9h12p9h12p9h12p9h12p9h12p9h12p9h12-8h10p7h9p8h10p8h10p8h10p8h10--|
b|-----------------------------------------------------------------------|
g|-----------------------------------------------------------------------|
d|-----------------------------------------------------------------------|
a|-----------------------------------------------------------------------|
e|-----------------------------------------------------------------------|

e|-8h10p8h10-9h12p9h12p9h12p9h12p9h12p9h12p9h12p9h12---|
b|-----------------------------------------------------|
g|-----------------------------------------------------|
d|-----------------------------------------------------|
a|-----------------------------------------------------|
e|-----------------------------------------------------|

 
 
Him - Sleepwalking Past Hope :: indexed at Ultimate Guitar.
Sleepwalking Past Hope tabs @ 911Tabs

Quick tip, so you can enjoy Sleepwalking Past Hope even more:

You might want to transpose the song if it is too high or too low for you to sing. Just click the desired option while playing a song and all the chords will automatically be transponded into a new key.

Show us your talent, perform Sleepwalking Past Hope!

Here you can post a video or audio performance. Tell me more ...
Where can we find your performance? Tell me more ...
Your comment:
Please, log in to post your performance.