Artists by letter: A B C D E F G H I J K L M N O P Q R S T U V W X Y Z 0-9

 

Shatter Me With Hope
-----------------------------------------------------------------------------
                             Shatter Me With Hope - HIM
-----------------------------------------------------------------------------

Tabbed by: helsinkivampire

Email: [email protected]



Tuning: Standard E ( Heavy Distortion )



Intro.

E  F# A  F#
e|-------------------------------------------------------------------|
B|-------------------------------------------------------------------|
G|-------------------------------------------------------------------|
D|--2--4--7--4----2--4--7--4----2--4----2--4--7--4-------------------|
A|--2--4--7--4----2--4--7--4----2--4----2--4--7--4---------0-2-2/4---|
E|--0--2--5--2----0--2--5--2----0--2----0--2--5--2----0--2-----------|

D 
e|-----------------------------------------------------------------------|
B|-----------------------------------------------------------------------|
G|------------------------------------------------------------------7~---|
D|------------------------------------------------------------------7~---|
A|------------------------------------------------------------------5~---|
E|--0--2--5--2----0--2--5--2----0--2----0--2--5--2----0--2-5--4--0--5~---|





Verse 1

e|--------------------------------------------------------------|
B|------------------------------------------------(14)~~~-------|
G|------------------------------------7~------------------------|
D|------------------------------------7~------------------------|
A|------------------------------------5~------------------------|
E|--0--2--5--2----0--2--5--2----0--2--5~------------------------|

e|-------------------------------------------------------------|
B|-------------------------------------------------------------|
G|-------------------------------------------------------------|
D|--2--4--7--4----2--4--7--4----2--4----2--4--7--4-------------|
A|--2--4--7--4----2--4--7--4----2--4----2--4--7--4-------------|
E|--0--2--5--2----0--2--5--2----0--2----0--2--5--2---5--4--0---|



" baby apart.......wise like Solomon

D             Dm                B
e|-----------------------------------------------------|
B|-----------------------------------------------------|
G|--7-7-7-7-7-7-7-7-6-6-6-6-6-6---4-4-4-4-4-4-4-4-4\---|
D|--7-7-7-7-7-7-7-7-7-7-7-7-7-7---4-4-4-4-4-4-4-4-4\---|
A|--5-5-5-5-5-5-5-5-5-5-5-5-5-5---2-2-2-2-2-2-2-2-2\---|
E|-----------------------------------------------------|





Chorus

e|--------------------------------------------------------|
B|--------------------------------------------------------|
G|--------------------------------------------------------|
D|--2-2-2-4-4-4-4-4-4--2-4-4-4-4-4-4----------------------|
A|--2-2-2-4-4-4-4-4-4--2-4-4-4-4-4-4----12---11-----------|
E|--0-0-0-2-2-2-2-2-2--0-2-2-2-2-2-2--------------12------|
    . .



( This next part is a hard to hear in the song but I am sure 
     that this is accurate )

D        D  A             G#
e|----------------------------------------------|
B|----------------------------------------------|
G|--------7--------7----------------------------|
D|--------7--------7-x-7-7-7-7-7-7-7--6--4--2---|
A|--5-5-5-5-5--5-5-5-x-7-7-7-7-7-7-7--6--4--2---|
E|--5-5-5-5-5--5-5-5-x-5-5-5-5-5-5-5--4--2--0---|
    . . .   .  . .



" scream me a dream....... untouched by shadows "
   
    ( play fast )

e|-------------------------------------------------------|
B|-------------------------------------------------------|
G|-------------------------------------------------------|
D|-----------14-----------------14-----------------------|   x 2
A|--12-11-------12p11---12-11-------12p11--12p11---------|
E|--------14------------------14-----------------14-12---|



e|-----------------------------------------------|
B|-----------------------------------------------|
G|--------7--------7-----------------------------|
D|--------7--------7-x-7-7-7-7-7-7-7--6--4--2~---|
A|--5-5-5-5-5--5-5-5-x-7-7-7-7-7-7-7--6--4--2~---|
E|--5-5-5-5-5--5-5-5-x-5-5-5-5-5-5-5--4--2--0~---|
    . . .   .  . .





Solo ( w/ wah-wah , play along with Main Riff )

E scale
e|-------------------------------------------------------|
B|-------------------------------------------------------|
G|-------------------------------------------------------|
D|------7---------7---------------7---------7-9-9/11-----|
A|--7-9---9---7-9---9---7-9---7-9---9---7-9--------------|
E|-------------------------------------------------------|



( octave higher )

e|-----------------------------------------------------------------|
B|-----------------------------------------------------------------|
G|--------14------------14-----14h16p14------------14--------------|
D|--14-16----16---14-16----16-----------16---14-16----16---14-16---|
A|-----------------------------------------------------------------|
E|-----------------------------------------------------------------|
                    
               " She'll be the witness... to the repose of Nevelen"
e|-----------------------------------------|
B|------------------------------------(14)-|
G|--14--13---------------------------------|
D|----------14-12--------------------------|
A|-----------------------------------------|
E|-----------------------------------------|





Verse 2 ( variation on 2nd bar )

e|---------------------------------------|
B|---------------------------------------|
G|---------------------------------------|
D|--2--4--7--4----2--4--7--4----2--4-----|
A|--2--4--7--4----2--4--7--4----2--4-----|
E|--0--2--5--2----0--2--5--2----0--2-----|

" Push the needle in....

e|-------------------------------------|
B|-------------------------------------|
G|------7-7-7-7-----7-7-7-7-----7-7----|
D|--x-x-x-x-x-x-x-x-x-x-x-x-x-x-x-x----|   x 2
A|--x-x-5-5-5-5-x-x-5-5-5-5-x-x-5-5----|
E|-------------------------------------|

e|-------------------------------------------------------------|
B|-------------------------------------------------------------|
G|-------------------------------------------------------------|
D|--2--4--7--4----2--4--7--4----2--4----2--4--7--4-------------|
A|--2--4--7--4----2--4--7--4----2--4----2--4--7--4-------------|
E|--0--2--5--2----0--2--5--2----0--2----0--2--5--2---5--4--0---|



" forty-three .........and you'll know how I feel

e|-----------------------------------------------------|
B|-----------------------------------------------------|
G|--7-7-7-7-7-7-7-7-6-6-6-6-6-6---4-4-4-4-4-4-4-4-4\---|
D|--7-7-7-7-7-7-7-7-7-7-7-7-7-7---4-4-4-4-4-4-4-4-4\---|
A|--5-5-5-5-5-5-5-5-5-5-5-5-5-5---2-2-2-2-2-2-2-2-2\---|
E|-----------------------------------------------------|





Repeat Chorus





Bridge

" Swear on your heart's grave I'm wrong...." ( Keyboard )



" and love like your life depended on it..."

F#              G              D        F# E
e|---------------------------------------------------------|
B|---------------------------------------------------------|
G|-----------------------------------7-7-7-7-7-------------|
D|--4--4-4--4-4----5--5-5--5-5-------7-7-7-7-7--4-2--------|
A|--4--4-4--4-4----5--5-5--5-5----5--5-5-5-5-5--4-2--------|
E|--2--2-2--2-2----3--3-3--3-3----5--5-5-5-5-5--2-0--------|



Solo 2 ( still working on for better accuracy )





" We'll tear this baby apart..."
   
e|--------12-13b14-----------------|
B|--14-15--------------------------|
G|---------------------------------|
D|---------------------------------|
A|---------------------------------|
E|---------------------------------|



" forty-three .........and you'll know how I feel

e|----------------------------------------------------------|
B|----------------------------------------------------------|
G|-------7-7-7-7-7-7-7-7-6-6-6-6-6-6---4-4-4-4-4-4-4-4-4\---|
D|-------7-7-7-7-7-7-7-7-7-7-7-7-7-7---4-4-4-4-4-4-4-4-4\---|
A|-------5-5-5-5-5-5-5-5-5-5-5-5-5-5---2-2-2-2-2-2-2-2-2\---|
E|-5-4-0----------------------------------------------------|



Repeat Chorus



Outro

e|-------------------------------------------------------------------|
B|-------------------------------------------------------------------|
G|----------------7-7-7-7-7-7-7--------------------------------------|
D|-4-4-4-4-4-4-4--7-7-7-7-7-7-7--7-7-7-7-7-7-7--7-7-7-7-7-7-7-7------|
A|-4-4-4-4-4-4-4--5-5-5-5-5-5-5--7-7-7-7-7-7-7--7-7-7-7-7-7-7-7------|
E|-2-2-2-2-2-2-2--5-5-5-5-5-5-5--5-5-5-5-5-5-5--4-4-4-4-4-4-4-4------|

e|-------------------------------------|
B|-------------------------------------|
G|-------------------------------------|
D|--2--4--7--4----2--4--7--4----2--4---|
A|--2--4--7--4----2--4--7--4----2--4---|
E|--0--2--5--2----0--2--5--2----0--2---|



I hope this helps.
 
 
Him - Shatter Me With Hope :: indexed at Ultimate Guitar.
Shatter Me With Hope tabs @ 911Tabs

Quick tip, so you can enjoy Shatter Me With Hope even more:

Try out the AutoScroller option ... It scrolls the page for you, so you can totally focus on nailing that solo. You can choose among different speeds using your mouse or your keyboard (keys 0, 1, 2 and 3).

Show us your talent, perform Shatter Me With Hope!

Here you can post a video or audio performance. Tell me more ...
Where can we find your performance? Tell me more ...
Your comment:
Please, log in to post your performance.