Artists by letter: A B C D E F G H I J K L M N O P Q R S T U V W X Y Z 0-9

 
Katherine Wheel
This is the intro:

E  E  E  E  E  E  E  E     E  E  E  E  E  E  E  E
E||--------------------------|--------------------------|
B||-----0--------------------|--------------------------|
G||-----------2-----0-----0--|-----------0-----2-----0--|
D||--2-----------2-----------|-----4--------------------|
A||--2-----------------------|--2-----2-----2-----2-----|
E||--0-----0-----------0-----|--------------------------|

^                                                   ^
  E  E  E  E  E  E  E  E     E  E  E  E  E  Q.        E  E  E  E  E  E  E  E
--------------------------|------------------------|--------------------------|
-----0--------------------|-----------------0------|-----0--------------------|
-----------2-----0-----0--|-----------0-----2------|-----------2-----0-----0--|
--2-----------2-----------|-----4------------------|--2-----------2-----------|
--2-----------------------|--2-----2-----2---------|--2-----------------------|
--0-----0-----------0-----|------------------------|--0-----0-----------0-----|

^                          ^
  E  E  E  E  E  E  E  E     E  E  E  E  E  E  E  E     W
--------------------------|--------------------------|-------------------||
--------------------------|-----0-----------0--------|-------------------||
-----------0-----2-----0--|--------0-----------2-----|--0----------------||
-----4--------------------|--2--------2-----------2--|--2----------------||
--2-----2-----2-----2-----|--2-----------2-----------|--2----------------||
--------------------------|--0-----------0-----------|--0----------------||

Then the chords for the verse are: Am, Em, D, Em, C, G, D

The chords for the chorus are: Em, C, G, D*, Em, C, G-D**, Em, C, Em, C, G, D

The "I turn and twist" part is: C, Em - C, Em - C, G, Em, D - C, G, Em, D

I'm lazy so I just posted the chords without the lyrics, hope you can get them by 
a bit on it.

* This is the lick you hear:
E||--0h-2p-0-----------||
B||-----------3-----3--||
G||--------------2-----||
D||--------------------||
A||--------------------||
E||--------------------||

**You got to change the G to the D faster than the first "G, D" ov the verse.
 
 
Him - Katherine Wheel :: indexed at Ultimate Guitar.
Katherine Wheel tabs @ 911Tabs

Quick tip, so you can enjoy Katherine Wheel even more:

After the registration (which takes just 10 seconds, remember?) you will be able to use your profile - your very own piece of YourChords.com.

Show us your talent, perform Katherine Wheel!

Here you can post a video or audio performance. Tell me more ...
Where can we find your performance? Tell me more ...
Your comment:
Please, log in to post your performance.