Artists by letter: A B C D E F G H I J K L M N O P Q R S T U V W X Y Z 0-9

Heartache Every Moment (ver 2) - Him


 
Heartache Every Moment
Intro Piano:

(0:00-0:07)

Intro Guitar:

(0:07)
e|----
B|----
G|----
D|----
A|-8-6
E|-8-6

e|-----------------------------------------------|
B|-----------------------------------------------|
G|-----------------------------------------------|
D|-----------------------------------------------|
A|-4--4--6-6--6--8-8--8---4--4--6-6--6--8-8--8---|
E|-4--4--6-6--6--8-8--8---4--4--6-6--6--8-8--8---|

e|-----------------------------------------------|
B|-----------------------------------------------|
G|-----------------------------------------------|
D|-----------------------------------------------|
A|-4--4--6-6--3--3--4--4--6--6-6--6--6-----------|
E|-4--4--6-6--4--4--4--4--6--6-6--6--6-----------|

Verse:
(0:40½)
e|-----------------------------------------------| x2
B|-----------------------------------------------|
G|-----------------------------------------------|
D|-----------------------------------------------|
A|-----------------------------------------------|
E|-1-1-1-1-3-3-3-3/9-9-9-9-9-9-9-9---------------|

e|---------------------------------------------------------|
B|---------------------------------------------------------|
G|---------------------------------------------------------|
D|---------------------------------------------------------|
A|-------------------------------6---6--6--6-6--6-6--8--6--|
E|-1-1-1-1-3-3-3-3/9-9-9-9-9-9-9-6---6--6--6-6--6-6--8--6--|

Chorus:

(0:57)
e|---------------------------------------------|
B|---------------------------------------------|
G|---------------------------------------------|
D|---------------------------------------------|
A|-4--4--6-6--6--8-8--8---4--4--6-6--6--8-8--8-|
E|-4--4--6-6--6--8-8--8---4--4--6-6--6--8-8--8-|

e|----------------------------------------------------|
G|----------------------------------------------------|
D|----------------------------------------------------|
A|-4--4--6-6--3--3--4--4--6--6-6--6--6-6--6-6--8--6---|
E|-4--4--6-6--4--4--4--4--6--6-6--6--6-6--6-6--8--6---|

e|---------------------------------------------|
B|---------------------------------------------|
G|---------------------------------------------|
D|---------------------------------------------|
A|-4--4--6-6--6--8-8--8---4--4--6-6--6--8-8--8-|
E|-4--4--6-6--6--8-8--8---4--4--6-6--6--8-8--8-|

e|-------------------------------------|
G|-------------------------------------|
D|-------------------------------------|
A|-4--4--6-6--3--3--4--4--6--6-6--6--6-|
E|-4--4--6-6--4--4--4--4--6--6-6--6--6-|

(1:30)
e|----
B|----
G|----
D|-3--  (let ring)
A|-3--
E|-1--

Verse: (1:37)

Chorus: (1:53)

Solo: (2:25)

e|-------------------------------------------|
B|-13---11----------------13---11------------|
G|---------13--12-13--------------13--12-13--|
D|-------------------------------------------|
A|-------------------------------------------|
E|-------------------------------------------|

e|-------------------------------------------|
B|-13---11--------------13--11---11----------|
G|---------13--12-13-----------13------------|
D|-------------------------------------------|
A|-------------------------------------------|
E|-------------------------------------------|

Bridge: (2:40)

e|-------------------------------------------------|
B|-------------------------------------------------|
G|-------------------------------------------------|
D|-------------------------------------------------|
A|-4-(x16)-6-(x16)-8-(x16)-6-(x16)-4-(x16)-6-(x16--|
E|-4-------6-------8-------6-------4-------6-------|

Chorus: (3:03)

Outro: (3:37)

e|----
B|----
G|----
D|-3--
A|-3--
E|-1--

Done, please rate :-)
 
 
Him - Heartache Every Moment :: indexed at Ultimate Guitar.
Heartache Every Moment tabs @ 911Tabs

Quick tip, so you can enjoy Heartache Every Moment even more:

If you don't really know how to deal with "Absus4" chord and his equally confusing brothers, just put the mouse cursor over them and you will be shown a helpful chord diagram.

Show us your talent, perform Heartache Every Moment!

Here you can post a video or audio performance. Tell me more ...
Where can we find your performance? Tell me more ...
Your comment:
Please, log in to post your performance.