Artists by letter: A B C D E F G H I J K L M N O P Q R S T U V W X Y Z 0-9

Gone With The Sin Live (ver 3) - Him


 
Gone With The Sin Live
Gone with the sin Live solo
Standard

I tabbed this out of a live performance and its right on, it sounds amazing Enjoy!

/-slides
h-hammer
p-pull-off

Rhythm

e|------------------||------------------------|
B|--------2h3p2-----||-------------3----------|
G|-----4--------4---||-----------4----4-------|
D|---4------------4-||--------5----------5----|
A|-2---------------2||-----5----------------5-|
E|------------------||--3---------------------|

e|------------------||-------------------|
B|----------5-------||--------7----------|
G|--------6---6-----||------7----------6-|
D|------7-------7---||----7----------7---|
A|----7-----------7-||--5----------7-----|
E|--5---------------||-----------5-------|

Just repeat this

Solo

e|------------------------------------------------------------|
B|------------------------------------------------------------|
G|----------9--7--5---4-------4--5--5/7\5----4----------------|
D|-----5/7-----------------5---------------------7--5--7------|
A|--------------------------------------------------------5/7-|
E|------------------------------------------------------------|

e --------------------------------------------------------------|
B|--------------------------------------------------------------|
G|-----9--7--5--7---4---5---7---9--7--5---4---------------------|
D|-5/7--------------------------------------------7--5----------|
A|------------------------------------------------------8--7--5-|
E|--------------------------------------------------------------|

e|-----------------------------------------------------|
B|-----------------------------------------------------|
G|--------------------------------7--9--7--------------|
D|---------5/7----9---10---9---10----------10---9--7---|
A|-----------------------------------------------------|
E|----8--7---------------------------------------------|

e|---------------------------------------------|
B|---------------------------------------------|
G|---------------------------------------------|
D|---------------------------------------------|
A|------10--8--7-------------------------------|
E|-----------------10--8--7--3/5--7-8-7\3/7-8--|

You can add hammer ons to make it sound more like the live version and play the 
like this
Hammer on the 9 and pull off back to the 7
e|----------------------|
B|----------------------|
G|----------9--7h9p7--5-|
D|-----5/7--------------|
A|----------------------|
E|----------------------|
 
 
Him - Gone With The Sin Live :: indexed at Ultimate Guitar.
Gone With The Sin Live tabs @ 911Tabs

Quick tip, so you can enjoy Gone With The Sin Live even more:

If you don't really know how to deal with "Absus4" chord and his equally confusing brothers, just put the mouse cursor over them and you will be shown a helpful chord diagram.

Show us your talent, perform Gone With The Sin Live!

Here you can post a video or audio performance. Tell me more ...
Where can we find your performance? Tell me more ...
Your comment:
Please, log in to post your performance.