Artists by letter: A B C D E F G H I J K L M N O P Q R S T U V W X Y Z 0-9

 
Dead Lovers Lane
Dead Lovers’ Lane
HIM
Venus Doom
Drop D
(I was too lazy to do the end marks) (sb=slow bend)

Main Riff
|---------------------------------------------------|
|---------------------------------------------------|
|---------------------------------------------------|
|---------------------------------------------------|
|-2-0-2-0-2-0-2-0-2-2-0-2-5-4-0-2-2-----------------|
|-2------0-2------0-2-2------5-4-0-2-2--------------| x4

The last time end with open power chord on the fifth and sixth string.

Verse

|------------------------------------------------------------------|
|- ----------------------------------------------------------------|
|- ----------------------------------------------------------------|
|- ----------------------------------------------------------------|
|---7-0-5-7-0-5-7-0-5-7-0-5-- 7-0-5-7-0-5-7-0-5-7-0-5--------------|
|-2-------------------------------2--------------------------------|

Chorus

|------------------------------------------------------------------- --|
|----------------------------------------------------------------------|
|----------------------------------------------------------------------|
|-0-0--0-0-------------------------------------------------------------|
|-0-0--0-0-------------------------------------------------------------|
|-0-0--0-0-2222222222222-/9-9-9-2222222222222-/9-9-9-------------------|
(below is chorus cont.)

|-------------------------------------------------------------------------------------|
|-------------------------------------------------------------------------------------|
|-------------------------------------------------------------------------------------|
|-------------------------------------------------------------------------------------|
|-10--10-10--0--0-0--2--2-2--/5--5-5--/10-10-10-10-10-10-10---------------------------|
|-10--10-10--0--0-0--2--2-2--/5--5-5--/10-10-10-10-10-10-10--4444454------------------|

Main Riff

Verse
Chorus

Pre-Solo

|---------------------------------------------------|
|---------------------------------------------------|
|---------------------------------------------------|
|---------------------------------------------------|
|-2-44-444-2-4444-7--2-44-444--2-4444-2-------------|
|-2-44-444-2-4444-7--2-44-444--2-4444-2-------------|  (x2)

Solo

|-11-11---9-9-----------------------------------------------------------------------|
|---------9-----9-12-12-9--11\9-----------------------------------------------------|
|------------------------------------ 11-8----------b6--b6--b6--6-7-6-4--4----------|
|---------------------------------------------11-9---------------------6------------|
|-----------------------------------------------------------------------------------|
|-----------------------------------------------------------------------------------|

|-16-19-16-----------------------------------------------------------------------------|
|-------------19-16--------------------------------------------------------------------|
|---------------------19-18-16-18p16p14p16p19------------------------------------------|
|--------------------------------------------------------16p14p16p14p----sb12----------|
|--------------------------------------------------------------------------------------|
|--------------------------------------------------------------------------------------|

this is only fifth string: |-14----13-14--v13---|

Bridge Part 1(all palm muting)

|------------------------------------------------------|
|------------------------------------------------------|
|------------------------------------------------------|
|------------------------------------------------------|
|-2-2-2-2--2-2-2-2--2-2-2-2--2-5-3-2-3-2-3-5-----------|
|-2-2-2-2--2-2-2-2--2-2-2-2--2-5-3-2-3-2-3-5-----------| (x2)

Part 2 (no palm muting; only fifth and sixth strings)

|-5-3-2-3-2-3-5|
|-5-3-2-3-2-3-5|

Chorus x2

Main Riff
 
 
Him - Dead Lovers Lane :: indexed at Ultimate Guitar.
Dead Lovers Lane tabs @ 911Tabs

Quick tip, so you can enjoy Dead Lovers Lane even more:

If you don't really know how to deal with "Absus4" chord and his equally confusing brothers, just put the mouse cursor over them and you will be shown a helpful chord diagram.

Show us your talent, perform Dead Lovers Lane!

Here you can post a video or audio performance. Tell me more ...
Where can we find your performance? Tell me more ...
Your comment:
Please, log in to post your performance.