Artists by letter: A B C D E F G H I J K L M N O P Q R S T U V W X Y Z 0-9

 
With Everything
This is going to take forever to tab but whatever.I hope you like it. Please rate. and 
corections. Use altranate pick for guitar 1

Song   :Witheverything
Artist :Hillsong
Standard Tuning
Guitar 1 - use overdrive with delay( and when you play the chords dont use the delay)
Guitar 2 - use distortion on rythem parts (and clean on slow parts and intro).
Legend:
.=hold for a sec.
*=Palm Mute
B=Bend
guitar 1
intro  (:0-:30)
E
B|-------14-------16--------17------14-----16------12------14|
G|-----------------------------------------------------------|
D|-----------------------------------------------------------|
A|-----------------------------------------------------------|
E|-----------------------------------------------------------|

Guitar 2
intro (:0-1:28   after 1:28 guitar 2 plays rythem (chrords)
     3x                    once                    3x
E|----------------------|-----------------|-------------------|--------0.--0|
B|-------0--3.----0--3.-|---------1.---1.-|------0--3.--0--3.-|------0----0-|
G|----------------------|-------2----2----|----0--------------|----0--------|
D|--0--3----------------|--0--3-----------|--0----------------|--2----------|
A|----------------------|-----------------|-------------------|-------------|
E|----------------------|-----------------|-------------------|-------------|

Guitar 1. so 12 until he says (light) go to 16 then when they say( seen) go to 17 then 
he says( bring) go to 12. then when he says (let hope rise)play
12 then go to 16 and back and forth....then when he says (Jesus our God)play the 
when they go back to let hope rise the secound time play these notes. then play the chords for 
pre-chorus.

Giuitar 1                                                        4x
E-------------------------|------------------|------------------------------|
B----12---16---17--12-----|-------12----16---|--11--12--11--9--11--12--11--7|
G-------------------------|------------------|------------------------------|
D-------------------------|------------------|------------------------------|
A-------------------------|------------------|------------------------------|
E-------------------------|------------------|------------------------------|

Guitar 1 after the pre-chorus play this. over and over until they start with bridge 2 
play the chords

E|-------------|
B|---12---16---|
G|-------------|
D|-------------|
A|-------------|
E|-------------|

Verse 1:

B
Open our eyes
   F#                  G#m
To see the things that make Your heart cry
   E                  B
To be the church that you would desire
      F#          G#m
Your light to be seen

Verse 2:
B
Break down our pride
    F#                  G#m
And all the walls we've built up inside
    E                  B
Our earthly crowns and all our desires
   F#           G#m   E
We lay at Your feet

Pre-Chorus:
    G#m   E   B
Let hope rise
              F#
And darkness tremble
        G#m         E     B
In Your holy light
           F#
That every eye will see

Chorus:
E       G#m    F#
Jesus our God
           G#m   E          F#
Great and mighty to be praised
B
God of all days
F#          G#m
Glorious in all Your ways
       E           B
Oh the majesty the wonder and grace
       F#            G#m
In the light of Your Name

(then the pre-chorus again)

Chorus:
E        G#m   F#
Jesus our God
           G#m    E         F#
Great and mighty to be praised

Bridge 1:
      E
With everthing
      G#m
With everything
         B             F#
We will shout for Your glory
     E
With everything
     G#m
With everything
         B               F#
We will shout forth Your praise

Bridge 2:
     E
Our hearts they cry
    G#m
Be glorified
   B                 F#
Be lifted high above all names
    E                 G#m
For You are King with everthing
         B               F#
We will shout forth Your Praise.......

then they do "wooo ohhh" and for that part you ouse the chords from the bridge.
wow that took three hours to write. but it helps all of you guys. so there you go.  :)
 
 
Hillsongs - With Everything :: indexed at Ultimate Guitar.
With Everything tabs @ 911Tabs

Quick tip, so you can enjoy With Everything even more:

Try out the AutoScroller option ... It scrolls the page for you, so you can totally focus on nailing that solo. You can choose among different speeds using your mouse or your keyboard (keys 0, 1, 2 and 3).

Show us your talent, perform With Everything!

Here you can post a video or audio performance. Tell me more ...
Where can we find your performance? Tell me more ...
Your comment:
Please, log in to post your performance.