Artists by letter: A B C D E F G H I J K L M N O P Q R S T U V W X Y Z 0-9

 
Youll Come
-------------------------------------------------------------------------------
                             YOU'LL COME - HILLSONG UNITED
-------------------------------------------------------------------------------

Tuning: Standard

Intro:

e|---------------------------------------------------------------------------|
B|---------------------------------------------------------------------------|
G|---------------------------------------------------------------------------|
D|---------------------------------------------------------------------------|
A|-9/11-11-11-11-11--11-11-11-11-11-11-11------------------------------------|
E|-0----0--0--0--0---0--0--0--0--0--0--0-------------------------------------|

e|---------------------------------------------------------------------------|
B|---------------------------------------------------------------------------|
G|---------------------------------------------------------------------------|
D|---------------------------------------------------------------------------|  x4
A|-9/11-11-11-11-11/12--12-12-12-12-12-12-12---------------------------------|
E|-0----0--0--0--0--0---0--0--0--0--0--0--0----------------------------------|


Verse:

e|---------------------------------------------------------------------------|
B|---------------------------------------------------------------------------|
G|---------------------------------------------------------------------------|
D|---------------------------------------------------------------------------|
A|-9/11-11-11-11-11--11-11-11-11-11-11-11--11-11-11-11--11-11-11-11-11-11-11-|
E|-0----0--0--0--0---0--0--0--0--0--0--0---0--0--0--0---0--0--0--0--0--0--0--|

e|---------------------------------------------------------------------------|
B|---------------------------------------------------------------------------|
G|---------------------------------------------------------------------------|
D|---------------------------------------------------------------------------|
A|-12-12-12-12--12-12-12-12-12-12-12--11-11-11-11--11-11-11-11-11-11-11------|
E|-0--0--0--0---0--0--0--0--0--0--0---0--0--0--0---0--0--0--0--0--0--0-------|


Pre-chorus:

e|---------------------------------------------------------------------------|
B|-------9----------9--------------------------------------------------------|
G|-9-----------9-----------11------11---11-9-8-------------------------------|
D|----11----11----9-------------------9--------------------------------------|
A|---------------------------------------------------------------------------|
E|---------------------------------------------------------------------------|

e|---------------------------------------------------------------------------|
B|-------9----------9--------------------------------------------------------|
G|-9-----------9--------------11--11--9-8------------------------------------|
D|----11----11----9----------------------------------------------------------|
A|---------------------------------------------------------------------------|
E|---------------------------------------------------------------------------|


Chorus:

e|--------------9-------------------------|
B|------9---12----------------------------|
G|----9------------11---11b13b11--9-11----|
D|-11----------------------------------9--| x3
A|----------------------------------------|
E|----------------------------------------|

e|---------------------------|
B|------9------------7-------|
G|----9--------------7-------|
D|-11----------------7-------|
A|-------------------5-------|
E|---------------------------|

2nd Chorus:

e|-0--0--0--0--0--0-----0--0------0---0---0---0--|
B|-0--0--0--0--0--0-----0--0------0---0---0---0--|
G|-9--9--9--9--9--9/11--11-11/13--13--13--13--13-|
D|-x--x--x--x--x--x-----x--x------x---x---x---x--|
A|-7--7--7--7--7--7/9---9--9/11---11--11--11--11-|
E|-0--0--0--0--0--0-----0--0------0---0---0---0--|

e|-0---0--0--0--0--0---0--0--0--0--0---0---0---0-----------|
B|-0---0--0--0--9--0---0--0--0--0--0---0---0---0-----------|
G|-9---9--9--9--9--9---9--9--9--9--14--14--14--14----------|
D|-x---x--x--x--x--x---x--x--x--x--x---x---x---x-----------|
A|-7---7--7--7--7--7---7--7--7--7--12--12--12--12----------|
E|-0---0--0--0--0--0---0--0--0--0--0---0---0---0-----------|

END
 
 
Hillsong United - Youll Come :: indexed at Ultimate Guitar.
Youll Come tabs @ 911Tabs

About the artist behind Youll Come:

Hillsong United is the youth ministry of Hillsong Church. The youth ministry is combined of four different ages groups that meet separately but have "United" nights when they come together. The different age groups are; Fuel for years 7 to 9 at school, Wildlife for years 10 to 12 at school, Powerhouse for ages 18 to 25 and Frontline for ages 25 to 35.

Indexed at Wikipedia.

Show us your talent, perform Youll Come!

Here you can post a video or audio performance. Tell me more ...
Where can we find your performance? Tell me more ...
Your comment:
Please, log in to post your performance.