Artists by letter: A B C D E F G H I J K L M N O P Q R S T U V W X Y Z 0-9

When I Lost My Heart To You Hallelujah - Hillsong United


 
When I Lost My Heart To You Hallelujah
Artist: Hillsong United
Album: Empires
Song: When I Lost My Heart To You (Hallelujah)


Tabbed by: frenchboy

Capo: 1



Acoustic parts of the song.


Intro:
e|---------------------------------------------------------------------------|
B|------0-------------------------------0------------------------------------|
G|---------------------------------------------------------------------------|
D|--2-------2---2---2---2---2---2---2-------2---2---2---2---2---2------------|
A|------------------------2---2----------------------------------------------|
E|0---0---0---0---0---0-----------0---0---0---0---0---0---0---0--------------|

e|---------------------------------------------------------------------------|
B|------0-------------------------------0------------------------------------|
G|---------------------------------------------------------------------------|
D|--2-------2---2---2---2---2---2---2-------2---2---2---2---2---2------------|
A|4---4---4---4---4---4---2---2----------------------------------------------|
E|--------------------------------0---0---0---0---0---0---0---0--------------|


Verses:
e|---------------------------------------------------------------------------|
B|------0-------------------------------0------------------------------------|
G|---------------------------------------------------------------------------|
D|--2-------2---2---2---2---2---2---2-------2---2---2---2---2---2------------|
A|0---0---0---0---0---0-----------4---4---4---4---4---4---4---4--------------|
E|------------------------4---4----------------------------------------------|

e|------0-------0------------------------------------------------------------|
B|--------------------------------------4-------4----------------------------|
G|---------------------------------------------------------------------------|
D|--2-------2-------2---2---2---2---2-------2-------2---2---2---2------------|
A|--------------------------------2---2---2---2---2---2---2---2--------------|
E|0---0---0---0---0---0---0---0----------------------------------------------|

e|---------------------------------------------------------------------------|
B|------0-------------------------------0------------------------------------|
G|---------------------------------------------------------------------------|
D|--2-------2---2---2---2---2---2---2-------2---2---2---2---2---2------------|
A|0---0---0---0---0---0-----------4---4---4---4---4---4---4---4--------------|
E|------------------------4---4----------------------------------------------|

e|------0-------0------------------------------------------------------------|
B|--------------------------------------4-------4----------------------------|
G|---------------------------------------------------------------------------|
D|--2-------2-------2---2---2---2---2-------2--------------------------------|
A|--------------------------------2---2---2---2------------------------------|
E|0---0---0---0---0---0---0---0----------------------------------------------|


Pre-chorus:
e|---------------------------------------------------------------------------|
B|2-------------0----2-----------5-----------5/9-----------------------------|
G|---------------------------------------------------------------------------|
D|---------------------------------------------------------------------------|
A|0------------------0-----------4-----------4/7-----------------------------|
E|--------------4------------------------------------------------------------|

e|-------------------------------4-----------2-------------------------------|
B|2-------------0----2-------------------------------------------------------|
G|---------------------------------------------------------------------------|
D|---------------------------------------------------------------------------|
A|0------------------0-----------------------2-------------------------------|
E|--------------4----------------0-------------------------------------------|


Chorus:
e|--------------------0------------------------------------------------------|
B|----2-------------------------------4---------------4----------------------|
G|----------2---2-----------1---1-----------4---4-----------4---4------------|
D|--2-----2---------2-----2---------4-----4---------4-----4------------------|
A|0-----0-----0-------------------2-----2-----2---2-----2-----2--------------|
E|----------------0-----0-----0----------------------------------------------|

e|--------------------0------------------------------------------------------|
B|----2-------------------------------4---------------4----------------------|
G|----------2---2-----------1---1-----------4---4-----------4---4------------|
D|--2-----2---------2-----2---------4-----4---------4-----4------------------|
A|0-----0-----0-------------------2-----2-----2---2-----2-----2--------------|
E|----------------0-----0-----0----------------------------------------------|

e|--------------------0------------------------------------------------------|
B|----2-------------------------------4---------------4----------------------|
G|----------2---2-----------1---1-----------4---4-----------4---4------------|
D|--2-----2---------2-----2---------4-----4---------4-----4------------------|
A|0-----0-----0-------------------2-----2-----2---2-----2-----2--------------|
E|----------------0-----0-----0----------------------------------------------|

e|------4---------2-------0--------------------------------------------------|
B|--5------------------------------------------------------------------------|
G|---------------------------------------------------------------------------|
D|---------------------------------------------------------------------------|
A|4---4-----------0----------------------------------------------------------|
E|------------------------0--------------------------------------------------|


Chorus 2 (at 2:55):
e|---------------------------------------------------------------------------|
B|----0---------------0---------------0---------------0----------------------|
G|---------------------------------------------------------------------------|
D|--2-------2---2---2-------2---2---2-------2---2---2-------2---2------------|
A|0-----0-0---0-------------------2-----2-2---2---2-----2-2---2--------------|
E|----------------0-----0-0---0----------------------------------------------|

e|---------------------------------------------------------------------------|
B|----0---------------0---------------0---------------0----------------------|
G|---------------------------------------------------------------------------|
D|--2-------2---2---2-------2---2---2-------2---2---2-------2---2------------|
A|0-----0-0---0-------------------2-----2-2---2---2-----2-2---2--------------|
E|----------------0-----0-0---0----------------------------------------------|

e|---------------------------------------------------------------------------|
B|----0---------------0---------------0---------------0----------------------|
G|---------------------------------------------------------------------------|
D|--2-------2---2---2-------2---2---2-------2---2---2-------2---2------------|
A|0-----0-0---0-------------------2-----2-2---2---2-----2-2---2--------------|
E|----------------0-----0-0---0----------------------------------------------|

e|---------------------------------------------------------------------------|
B|------0--------------------------------------------------------------------|
G|---------------------------------------------------------------------------|
D|--2-------2---2---2---2---2---2---2---2---2---2---2---2---2---2------------|
A|4---4---4---4---4---4---4---4---4---4---4---4---0---0---0---0--------------|
E|---------------------------------------------------------------------------|

e|------0-------0-------0-------0-------0-------0-------0-------0------------|
B|---------------------------------------------------------------------------|
G|---------------------------------------------------------------------------|
D|--2-------2-------2-------2-------2-------2-------2-------2----------------|
A|---------------------------------------------------------------------------|
E|0---0---0---0---0---0---0---0---0---0---0---0---0---0---0---0--------------|

e|---------------------------------------------------------------------------|
B|----0---------------0---------------0---------------0----------------------|
G|---------------------------------------------------------------------------|
D|--2-------2---2---2-------2---2---2-------2---2---2-------2---2------------|
A|0-----0-0---0-------------------2-----2-2---2---2-----2-2---2--------------|
E|----------------0-----0-0---0----------------------------------------------|

e|---------------------------------------------------------------------------|
B|----0---------------0---------------0---------------0----------------------|
G|---------------------------------------------------------------------------|
D|--2-------2---2---2-------2---2---2-------2---2---2-------2---2------------|
A|0-----0-0---0-------------------2-----2-2---2---2-----2-2---2--------------|
E|----------------0-----0-0---0----------------------------------------------|

e|---------------------------------------------------------------------------|
B|----0---------------0---------------0---------------0----------------------|
G|---------------------------------------------------------------------------|
D|--2-------2---2---2-------2---2---2-------2---2---2-------2---2------------|
A|4-----4-4---4---0-----0-0---0-------------------2-----2-2---2--------------|
E|--------------------------------0-----0-0---0------------------------------|

e|---------------------------------------------------------------------------|
B|------0-------------0----2-------------------------------------------------|
G|-----------------------------------------------1---------------------------|
D|--2------------------------------------------------------------------------|
A|0---0--------------------0-------------------------------------------------|
E|--------------------4--------------------------0---------------------------|


Ending:
e|---------------------------------------------------------------------------|
B|2-----------0----2---------------------------------------------------------|
G|-----------------------------------------------1---------------------------|
D|---------------------------------------------------------------------------|
A|0----------------0---------------------------------------------------------|
E|------------4----------------------------------0---------------------------|

************************************

| /   slide up
| \   slide down
| h   hammer-on
| p   pull-off
| ~   vibrato
| +   harmonic
| x   Mute note
| b   Bend
| pb  Pre-bend
| br  Bend release
| pbr Pre-bend release
| brb Bend release bend

************************************
 
 
Hillsong United - When I Lost My Heart To You Hallelujah :: indexed at Ultimate Guitar.
When I Lost My Heart To You Hallelujah tabs @ 911Tabs

About the artist behind When I Lost My Heart To You Hallelujah:

Hillsong United is the youth ministry of Hillsong Church. The youth ministry is combined of four different ages groups that meet separately but have "United" nights when they come together. The different age groups are; Fuel for years 7 to 9 at school, Wildlife for years 10 to 12 at school, Powerhouse for ages 18 to 25 and Frontline for ages 25 to 35.

Indexed at Wikipedia.

Show us your talent, perform When I Lost My Heart To You Hallelujah!

Here you can post a video or audio performance. Tell me more ...
Where can we find your performance? Tell me more ...
Your comment:
Please, log in to post your performance.