Artists by letter: A B C D E F G H I J K L M N O P Q R S T U V W X Y Z 0-9

 
Solution
Intro
e|---------------------------------|-----------------------------------------|
B|-------5-5-5-4-5-------4-4-4-----|-----------------------------------------|
G|-----------------------------6-4-|-----------------------------------------|
D|-6-4-6-----------4-4-4-----------|-----8x----------------------------------|
A|---------------------------------|-----------------------------------------|
E|---------------------------------|-----------------------------------------|

Riff 1(hey now...)
e|----------14------------14------------14----12-12-11-11-----------------|
B|-12-11-12------12-11-12------12-11-12-------------------14-14-11-11-----|
G|------------------------------------------------------------------------|2x
D|------------------------------------------------------------------------|
A|------------------------------------------------------------------------|
E|------------------------------------------------------------------------|

Pre-verse
e|---------------------------------|---------------------------------|
B|-------5-5-5-4-5-------4-4-4-----|-------5-5-5-4-5-------4-4-4-----|
G|-----------------------------6-4-|-----------------------------6-4-|
D|-6-4-6-----------4-4-4-----------|-6-4-6-----------4-4-4-----------|
A|---------------------------------|---------------------------------|
E|---------------------------------|---------------------------------|

Verse
e|-----------------------------------------------------------------------------------|
B|-----------------------------------------------------------------------------------|
G|-----------------------------------------------------------------------------------|2x
D|--9-9-9-9-9-9-9-9-4-4-4-4-4-4-4-4-14-14-14-14-14-14-14-14-14-14-14-14-14-14-14-14--|
A|--9-9-9-9-9-9-9-9-4-4-4-4-4-4-4-4-14-14-14-14-14-14-14-14-14-14-14-14-14-14-14-14--|
E|--7-7-7-7-7-7-7-7-2-2-2-2-2-2-2-2-12-12-12-12-12-12-12-12-12-12-12-12-12-12-12-12--|

Riff 1(hey now...)
e|----------14------------14------------14----12-12-11-11-----------------|
B|-12-11-12------12-11-12------12-11-12-------------------14-14-11-11-----|
G|------------------------------------------------------------------------|2x
D|------------------------------------------------------------------------|
A|------------------------------------------------------------------------|
E|------------------------------------------------------------------------|

Chorus
e|-------------------------------------------------------------------|
B|-------------------------------------------------------------------|
G|------------------4-4-4-4-4-4-4-4----------------------------------|
D|--2-2-2-2-2-2-2-2-4-4-4-4-4-4-4-4-4-4-4-4-4-4-4-4-4-4-4-4-4-4-4-4--|
A|--2-2-2-2-2-2-2-2-2-2-2-2-2-2-2-2-4-4-4-4-4-4-4-4-4-4-4-4-4-4-4-4--|
E|--0-0-0-0-0-0-0-0-----------------2-2-2-2-2-2-2-2-2-2-2-2-2-2-2-2--|

e|-------------------------------------------------------------------|
B|-------------------------------------------------------------------|
G|--------------------------------------------------6-6-6-6-6-6-6-6--|
D|--2-2-2-2-2-2-2-2-6-6-6-6-6-6-6-6-4-4-4-4-4-4-4-4-6-6-6-6-6-6-6-6--|
A|--2-2-2-2-2-2-2-2-6-6-6-6-6-6-6-6-4-4-4-4-4-4-4-4-4-4-4-4-4-4-4-4--|
E|--0-0-0-0-0-0-0-0-4-4-4-4-4-4-4-4-2-2-2-2-2-2-2-2------------------|
    
Pre-verse
e|---------------------------------|---------------------------------|
B|-------5-5-5-4-5-------4-4-4-----|-------5-5-5-4-5-------4-4-4-----|
G|-----------------------------6-4-|-----------------------------6-4-|
D|-6-4-6-----------4-4-4-----------|-6-4-6-----------4-4-4-----------|
A|---------------------------------|---------------------------------|
E|---------------------------------|---------------------------------|

Verse 2 (Alternate picking)
e|-----------------------------------------------------------------------------------|
B|-----------------------------------------------------------------------------------|
G|-----------------------------------------------------------------------------------|2x
D|-----------------------------------------------------------------------------------|
A|-----------------------------------------------------------------------------------|
E|--7-7-7-7-7-7-7-7-2-2-2-2-2-2-2-2-12-12-12-12-12-12-12-12-12-12-12-12-12-12-12-12--|

Riff 1(hey now...)
e|----------14------------14------------14----12-12-11-11-----------------|
B|-12-11-12------12-11-12------12-11-12-------------------14-14-11-11-----|
G|------------------------------------------------------------------------|2x
D|------------------------------------------------------------------------|
A|------------------------------------------------------------------------|
E|------------------------------------------------------------------------|

Chorus 2x
e|-------------------------------------------------------------------|
B|-------------------------------------------------------------------|
G|------------------4-4-4-4-4-4-4-4----------------------------------|
D|--2-2-2-2-2-2-2-2-4-4-4-4-4-4-4-4-4-4-4-4-4-4-4-4-4-4-4-4-4-4-4-4--|
A|--2-2-2-2-2-2-2-2-2-2-2-2-2-2-2-2-4-4-4-4-4-4-4-4-4-4-4-4-4-4-4-4--|
E|--0-0-0-0-0-0-0-0-----------------2-2-2-2-2-2-2-2-2-2-2-2-2-2-2-2--|

e|-------------------------------------------------------------------|
B|-------------------------------------------------------------------|
G|--------------------------------------------------6-6-6-6-6-6-6-6--|
D|--2-2-2-2-2-2-2-2-6-6-6-6-6-6-6-6-4-4-4-4-4-4-4-4-6-6-6-6-6-6-6-6--|
A|--2-2-2-2-2-2-2-2-6-6-6-6-6-6-6-6-4-4-4-4-4-4-4-4-4-4-4-4-4-4-4-4--|
E|--0-0-0-0-0-0-0-0-4-4-4-4-4-4-4-4-2-2-2-2-2-2-2-2------------------|
    
Solo
e|------------------------------------------|
B|------------------------------------------|
G|----------11------11-13-15-15-15-13-11-13-|
D|-13-13-13------13-------------------------|
A|------------------------------------------|
E|------------------------------------------|

e|------------------------------------------------|
B|------------------------14-14-14-12-12-12-11-11-|
G|----------11------11-13-------------------------|
D|-13-13-13------13-------------------------------|
A|------------------------------------------------|
E|------------------------------------------------|

e|------------------------------------------|
B|------------------------------------------|
G|----------11------11-13-15-15-15-13-11-13-|
D|-13-13-13------13-------------------------|
A|------------------------------------------|
E|------------------------------------------|

e|-------------------------14-14-14-12-12-12/16/17/16-|
B|-14-14-14-12-12-12-11-11----------------------------|
G|----------------------------------------------------|
D|----------------------------------------------------|
A|----------------------------------------------------|
E|----------------------------------------------------|





Bridge (Only you can mend the Broken Heart...)
e|-11-------12-------11-------9---------------|
B|----12-------12-------12------12------------|
G|-------11-------11-------11------11---------| 8x
D|--------------------------------------------|
A|--------------------------------------------|
E|--------------------------------------------|

Chorus
e|-------------------------------------------------------------------|
B|-------------------------------------------------------------------|
G|------------------4------------------------------------------------|
D|--2---------------4-(let ring)----4--------------------------------|
A|--2"(let ring)----2---------------4-(let ring)---------------------|
E|--0-------------------------------2--------------------------------|

e|-------------------------------------------------------------------|
B|-------------------------------------------------------------------|
G|--------------------------------------------------6-6-6-6-6-6-6-6--|
D|--2-2-2-2-2-2-2-2-6-6-6-6-6-6-6-6-4-4-4-4-4-4-4-4-6-6-6-6-6-6-6-6--|
A|--2-2-2-2-2-2-2-2-6-6-6-6-6-6-6-6-4-4-4-4-4-4-4-4-4-4-4-4-4-4-4-4--|
E|--0-0-0-0-0-0-0-0-4-4-4-4-4-4-4-4-2-2-2-2-2-2-2-2------------------|

e|-------------------------------------------------------------------|
B|-------------------------------------------------------------------|
G|------------------4-4-4-4-4-4-4-4----------------------------------|
D|--2-2-2-2-2-2-2-2-4-4-4-4-4-4-4-4-4-4-4-4-4-4-4-4-4-4-4-4-4-4-4-4--|
A|--2-2-2-2-2-2-2-2-2-2-2-2-2-2-2-2-4-4-4-4-4-4-4-4-4-4-4-4-4-4-4-4--|
E|--0-0-0-0-0-0-0-0-----------------2-2-2-2-2-2-2-2-2-2-2-2-2-2-2-2--|

e|-------------------------------------------------------------------|
B|-------------------------------------------------------------------|
G|--------------------------------------------------6-6-6-6-6-6-6-6--|
D|--2-2-2-2-2-2-2-2-6-6-6-6-6-6-6-6-4-4-4-4-4-4-4-4-6-6-6-6-6-6-6-6--|
A|--2-2-2-2-2-2-2-2-6-6-6-6-6-6-6-6-4-4-4-4-4-4-4-4-4-4-4-4-4-4-4-4--|
E|--0-0-0-0-0-0-0-0-4-4-4-4-4-4-4-4-2-2-2-2-2-2-2-2------------------|

Solo/outro
e|------------------------------------------|
B|------------------------------------------|
G|----------11------11-13-15-15-15-13-11-13-|
D|-13-13-13------13-------------------------|
A|------------------------------------------|
E|------------------------------------------|

e|------------------------------------------------|
B|------------------------14-14-14-12-12-12-11-11-|
G|----------11------11-13-------------------------|
D|-13-13-13------13-------------------------------|
A|------------------------------------------------|
E|------------------------------------------------|

e|------------------------------------------|
B|------------------------------------------|
G|----------11------11-13-15-15-15-13-11-13-|
D|-13-13-13------13-------------------------|
A|------------------------------------------|
E|------------------------------------------|

e|-------------------------14-14-14-12-12-12-10-10---|
B|-14-14-14-12-12-12-11-11---------------------------|
G|---------------------------------------------------|
D|---------------------------------------------------|
A|---------------------------------------------------|
E|---------------------------------------------------|

e|------------------------------------------|
B|------------------------------------------|
G|----------11------11-13-15-15-15-13-11-13-|
D|-13-13-13------13-------------------------|
A|------------------------------------------|
E|------------------------------------------|

e|------------------------------------------------|
B|------------------------14-14-14-12-12-12-11-11-|
G|----------11------11-13-------------------------|
D|-13-13-13------13-------------------------------|
A|------------------------------------------------|
E|------------------------------------------------|

e|------------------------------------------|
B|------------------------------------------|
G|----------11------11-13-15-15-15-13-11-13-|
D|-13-13-13------13-------------------------|
A|------------------------------------------|
E|------------------------------------------|

e|-14-14-14-12-12-12-11-11-19-19-19-18-18-18-18-18-16-|
B|----------------------------------------------------|
G|----------------------------------------------------|
D|----------------------------------------------------|
A|----------------------------------------------------|
E|----------------------------------------------------|

| /  slide up
| \  slide down
| h  hammer-on
| p  pull-off
| ~  vibrato
| +  harmonic
| x  Mute note


 
 
Hillsong United - Solution :: indexed at Ultimate Guitar.
Solution tabs @ 911Tabs

About the artist behind Solution:

Hillsong United is the youth ministry of Hillsong Church. The youth ministry is combined of four different ages groups that meet separately but have "United" nights when they come together. The different age groups are; Fuel for years 7 to 9 at school, Wildlife for years 10 to 12 at school, Powerhouse for ages 18 to 25 and Frontline for ages 25 to 35.

Indexed at Wikipedia.

Show us your talent, perform Solution!

Here you can post a video or audio performance. Tell me more ...
Where can we find your performance? Tell me more ...
Your comment:
Please, log in to post your performance.