Artists by letter: A B C D E F G H I J K L M N O P Q R S T U V W X Y Z 0-9

Oceans Where Feet May Fail (ver 6) - Hillsong United


 
Oceans Where Feet May Fail
-------------------------------------------------------------------------------
                             OCEANS Where Feet May Fail - Hillsong United
-------------------------------------------------------------------------------
Tabbed by: prezkamm
E-mail: [email protected]

This tab is basically like the piano version, but is still very pretty. It can play on its own, goes well with 
vocals, or compliments another guitar playing chords nicely. Just have fun with it! Works well with the chords
from the most popular version on here.

I recommend keeping the second finger on the sixth string, and third finger on first string, sliding between
the chords. But any fingers work, and if you don't like the sound of sliding on your strings, you don't have
to. That's just how my teacher had me do it when they taught me.

Capo: 3
Tuning: Standard

Intro and Verses:
    Bm                            A/C#        D
e|-------4---------4---------4----------6---------7---------7---------7---------7--|
B|-----0---------0---------0----------0---------0---------0---------0---------0----|
G|---------------------------------------------------------------------------------|
D|---------------------------------------------------------------------------------|
A|---------------------------------------------------------------------------------|
E|--4-------4-4-------4-4--------4-6-------6-7-------7-7-------7-7-------7-7-------|

     A                                        G(Em)
e|---------2---------2---------2---------2---------0---------0---------0---------0--|
B|-------0---------0---------0---------0---------0---------0---------0---------0----|
G|----------------------------------------------------------------------------------|
D|----------------------------------------------------------------------------------|
A|----------------------------------------------------------------------------------|
E|--7-2-------2-2-------2-2-------2-2-------2-0-------0-0-------0-0-------0-0-------|

Go through once for the intro, then twice for the verse.

Chorus:
    G                   D                   A                                         (repeat two more times)
e|---------0---------0---------7---------7---------2---------2---------2---------2--|
B|-------0---------0---------0---------0---------0---------0---------0---------0----|
G|----------------------------------------------------------------------------------|
D|----------------------------------------------------------------------------------|
A|----------------------------------------------------------------------------------|
E|--0-0-------0-0-------7-7-------7-7-------2-2-------2-2-------2-2-------2-2-------|

    G                   A
e|---------0---------0---------2---------2-----------------------------------|
B|-------0---------0---------2---------2-------------------------------------|
G|---------------------------------------------------------------------------|
D|---------------------------------------------------------------------------|
A|---------------------------------------------------------------------------|
E|--0-0-------0-0-------2-2-------2-2----------------------------------------|

Repeat intro once, then twice more for the verse. Repeat chorus, then intro once.

Instrumental/Bridge:
    Bm                                      G
e|---------4---------4---------4---------4---------0---------0---------0---------0--|
B|-------0---------0---------0---------0---------0---------0---------0---------0----|
G|----------------------------------------------------------------------------------|
D|----------------------------------------------------------------------------------|
A|----------------------------------------------------------------------------------|
E|--4-4-------4-4-------4-4-------4-4-------0-0-------0-0-------0-0-------0-0-------|

    D                                       A
e|---------7---------7---------7---------7---------2---------2---------2---------2--|
B|-------0---------0---------0---------0---------0---------0---------0---------0----|
G|----------------------------------------------------------------------------------|
D|----------------------------------------------------------------------------------|
A|----------------------------------------------------------------------------------|
E|--7-7-------7-7-------7-7-------7-7-------2-2-------2-2-------2-2-------2-2-------|

Repeat once more for instrumental, then twice per bridge. If you want to play the full, nearly 10-minute song,
the bridge is run through three times like this, then run through once with G-D-A-Em twice for a full bridge, 
then Bm-A/C#-D-A-Em six times for two more bridges and an instrumental. If you don't want to play that long,
you can play around with different ending, but I like to go through the above bridge twice and do the instru-
mental/verse once. Either way, I suggest ending by plucking the sixth string, 4th  fret (relative to the capo).


 
 
Hillsong United - Oceans Where Feet May Fail :: indexed at Ultimate Guitar.
Oceans Where Feet May Fail tabs @ 911Tabs

About the artist behind Oceans Where Feet May Fail:

Hillsong United is the youth ministry of Hillsong Church. The youth ministry is combined of four different ages groups that meet separately but have "United" nights when they come together. The different age groups are; Fuel for years 7 to 9 at school, Wildlife for years 10 to 12 at school, Powerhouse for ages 18 to 25 and Frontline for ages 25 to 35.

Indexed at Wikipedia.

Show us your talent, perform Oceans Where Feet May Fail!

Here you can post a video or audio performance. Tell me more ...
Where can we find your performance? Tell me more ...
Your comment:
Please, log in to post your performance.