Artists by letter: A B C D E F G H I J K L M N O P Q R S T U V W X Y Z 0-9

 
God Is Able
-------------------------------------------------------------------------------
                             God Is Able - Hillsong
-------------------------------------------------------------------------------
Tabbed by: Chicken Master
E-mail: [email protected]

************************************

| /   slide up
| \   slide down
| h   hammer-on
| p   pull-off
| ~   vibrato
| +   harmonic
| x   Mute note
| b   Bend
| pb  Pre-bend
| br  Bend release
| pbr Pre-bend release
| brb Bend release bend

************************************

Tuning: Standard eBGDAE

INTRO   
========           
   e e e e e e h      e  q  e  q     e e e e e e h     e q e q
e|-9\7-7-9-9\7-7-----11-12-12-11-----9\7-7-9-9\7-7-----------7---------------| x6
B|-----------------------------------------------------7-9-9-----------------|
G|---------------------------------------------------------------------------|
D|---------------------------------------------------------------------------|
A|---------------------------------------------------------------------------|
E|---------------------------------------------------------------------------|

VERSE
========
 *11 bar rest*                    e e dq q dq q  q  q  q  q  q  q  q  q  
e|------------------------------------7----4-----6-----6-----6-----6---------|
B|---------------------------------------------------------------------------|
G|--------3 beat rest-------------4/6----4----6-----6-----6-----6-----6------|
D|---------------------------------------------------------------------------|
A|---------------------------------------------------------------------------|
E|---------------------------------------------------------------------------|

CHORUS
=========
    q    h  h   h   h   dh   q  h   h   h   dh 
e|---------------------------------------------------------------------------| x2
B|------12--14--12--11----------12--14--12-----------------------------------|
G|--11------------------11--11-----------------------------------------------|
D|------------------------------------------14-------------------------------|
A|---------------------------------------------------------------------------|
E|---------------------------------------------------------------------------|

INSTRUMENTAL
===============
   e e e e e e h      e  q  e  q     e e e e e e h     e q e q
e|-9\7-7-9-9\7-7-----11-12-12-11-----9\7-7-9-9\7-7-----------7---------------| x2
B|-----------------------------------------------------7-9-9-----------------|
G|---------------------------------------------------------------------------|
D|---------------------------------------------------------------------------|
A|---------------------------------------------------------------------------|
E|---------------------------------------------------------------------------|

VERSE
========
   q e e q w q q e e q w q q e e q w q q e e q w q q e e q w q q e e q w q
e|-------------------6-----------------------4-----------------------6-------|
B|-------7-4-4---------7-7-------7-------------5-5-------7-4-4---4-----7-7---|
G|---4-----------4-----------4-----4-4---4-----------4-------------8---------|
D|-8---8-------8---8-------6---6-------6---6-------8---8-------8-------------|
A|---------------------------------------------------------------------------|
E|---------------------------------------------------------------------------|

   q q q q q q q q q q q q q q q q 
e|---------------------------------------------------------------------------|
B|-----4---5---5---7-----7-----7---------------------------------------------|
G|---4---4---4---4-----4-----4---4-------------------------------------------|
D|-6-----------------8-----8-------------------------------------------------|
A|---------------------------------------------------------------------------|
E|---------------------------------------------------------------------------|

CHORUS
=========
   e  e  e  e  e  e  e  e  e  e  e  e  e  e  e  e  e  e  e  e  e  e  e  e
e|---------------------------------------------------------------------------|
B|-------12-12-12-12-14-14-14-14-12-12-12-12-12-12-------12-12-12-12-14-14---|
G|-11-11-------------------------------------------11-11---------------------|
D|---------------------------------------------------------------------------|
A|---------------------------------------------------------------------------|
E|---------------------------------------------------------------------------|

   e  e  e  e  e  e  e  e  e  e  e  e  e  e  e  e  e  e  e  e  e  e  e  e
e|---------------------------------------------------------------------------|
B|-14-14-12-12-12-12-12-12-------12-12-12-12-14-14-14-14-12-12-12-12-12-12---|
G|-------------------------11-11---------------------------------------------|
D|---------------------------------------------------------------------------|
A|---------------------------------------------------------------------------|
E|---------------------------------------------------------------------------|

   e  e  e  e  e  e  e  e  e  e  e  e  e  e  e  e  e  e  e  e  e  e  e  e
e|---------------------------------------------------------------------------|
B|-------12-12-12-12-16-16-16-16-14-14-14-14-14-14-------12-12-12-12-14-14---|
G|-------------------------------------------------11-11---------------------|
D|-14-14---------------------------------------------------------------------|
A|---------------------------------------------------------------------------|
E|---------------------------------------------------------------------------|

   e  e  e  e  e  e  e  e  e  e  e  e  e  e  e  e  e  e  e  e  e  e  e  e
e|---------------------------------------------------------------------------|
B|-14-14-12-12-12-12-12-12-------12-12-12-12-14-14-14-14-12-12-12-12-12-12---|
G|-------------------------11-11---------------------------------------------|
D|---------------------------------------------------------------------------|
A|---------------------------------------------------------------------------|
E|---------------------------------------------------------------------------|

   e  e  e  e  e  e  e  e  e  e  e  e  e  e  e  e  e  e  e  e  e  e  e  e
e|---------------------------------------------------------------------------|
B|-------12-12-12-12-14-14-14-14-12-12-12-12-12-12-------12-12-12-12-16-16---|
G|-11-11---------------------------------------------------------------------|
D|-------------------------------------------------14-14---------------------|
A|---------------------------------------------------------------------------|
E|---------------------------------------------------------------------------|

   e  e  e  e  e  e  e  e
e|---------------------------------------------------------------------------|
B|-16-16-14-14-14-14-14-14---------------------------------------------------|
G|---------------------------------------------------------------------------|
D|---------------------------------------------------------------------------|
A|---------------------------------------------------------------------------|
E|---------------------------------------------------------------------------|

INSTRUMENTAL
===============
   q    q    q    q    q    q    q    q    q   q   q   q   q    q    q    q
e|-14---14---14---14---14---12---12---11---9---9---9---9---11---11---12---12-|
B|---------------------------------------------------------------------------|
G|-11---11---11---11---11---9----9----8----6---6---6---6---8----8----9----9--|
D|---------------------------------------------------------------------------|
A|---------------------------------------------------------------------------|
E|---------------------------------------------------------------------------|

   q    q    q    q    q    q    q   q q    q    q    q    q    q    q    q
e|-14---14---14---14---11---11---9---9/12---12---12---12---12---12---12---12-|
B|---------------------------------------------------------------------------|
G|-11---11---11---11---8----8----6---6/9----9----9----9----9----9----9----9--|
D|---------------------------------------------------------------------------|
A|---------------------------------------------------------------------------|
E|---------------------------------------------------------------------------|

BRIDGE
=========

   q    q    q    q    q    q    q    q    q    q    q    q    q    q    q    q
e|-------------------------------------------------------------------------------|
B|-12---12---12---12---12---12---12---12---11---11---11---11---11---11---11---11-|
G|-11---11---11---11---11---11---11---11---11---11---11---11---11---11---11---11-|
D|-9----9----9----9----9----9----9----9----11---11---11---11---11---11---11---11-|
A|-------------------------------------------------------------------------------|
E|-------------------------------------------------------------------------------|

   q    q    q    q    q    q    q    q    q    q    q    q    q    q    q    q
e|-------------------------------------------------------------------------------|
B|-12---12---12---12---11---11---11---11---12---12---12---12---12---12---12---12-|
G|-11---11---11---11---11---11---11---11---9----9----9----9----9----9----9----9--|
D|-13---13---13---13---11---11---11---11---9----9----9----9----9----9----9----9--|
A|-------------------------------------------------------------------------------|
E|-------------------------------------------------------------------------------|

CHORUS
=========
Usually, I won't play anything in the beginning and just let the rhythm guitar play
chords here as well as let the vocals just play with only rhythm guitar. 
When it's time to come in, I suggest not playing too loud. Maybe a mf.
  
 *8 bar rest*  e e e e e e h e  q  e  q  e e e e e e h e  q  e  q
e|-------------9\7-7-9-9\7-7-11-12-12-11-9\7-7-9-9\7-7-11-12-12-11-----------|
B|---------------------------------------------------------------------------|
G|---------------------------------------------------------------------------|
D|---------------------------------------------------------------------------|
A|---------------------------------------------------------------------------|
E|---------------------------------------------------------------------------|

   e e e e e e h e  q  e  q  e e e e e e h e q e q
e|-9\7-7-9-9\7-7-11-12-12-11-9\7-7-9-9\7-7-------7---------------------------|
B|-----------------------------------------7-9-9-----------------------------|
G|---------------------------------------------------------------------------|
D|---------------------------------------------------------------------------|
A|---------------------------------------------------------------------------|
E|---------------------------------------------------------------------------|

=======BEGIN REPEAT HERE============================================================*\
                                                                                    */
   e  e  e  e  e  e  e  e  e  e  e  e  e  e  e  e  e  e  e  e  e  e  e  e           *\
e|---------------------------------------------------------------------------|      */
B|-------12-12-12-12-14-14-14-14-12-12-12-12-12-12-------12-12-12-12-14-14---|      *\
G|-11-11-------------------------------------------11-11---------------------|      */
D|---------------------------------------------------------------------------|      *\
A|---------------------------------------------------------------------------|      */
E|---------------------------------------------------------------------------|      *\
                                                                                    */
   e  e  e  e  e  e  e  e  e  e  e  e  e  e  e  e  e  e  e  e  e  e  e  e           *\
e|---------------------------------------------------------------------------|      */
B|-14-14-12-12-12-12-12-12-------12-12-12-12-14-14-14-14-12-12-12-12-12-12---|      *\
G|-------------------------11-11---------------------------------------------|      */
D|---------------------------------------------------------------------------|      *\
A|---------------------------------------------------------------------------|      */
E|---------------------------------------------------------------------------|      *\
                                                                                    */
   e  e  e  e  e  e  e  e  e  e  e  e  e  e  e  e  e  e  e  e  e  e  e  e           *\
e|---------------------------------------------------------------------------| x3   */
B|-------12-12-12-12-16-16-16-16-14-14-14-14-14-14---------------------------|      *\
G|-14-14---------------------------------------------------------------------|      */
D|---------------------------------------------------------------------------|      *\
A|---------------------------------------------------------------------------|      */
E|---------------------------------------------------------------------------|      *\
                                                                                    */
====================================================================================*\

OUTRO
========

   e  e  e  e  e  e  e  e  e  e  e  e  e  e  e  e  e  e  e  e  e  e  e  e
e|---------------------------------------------------------------------------|
B|-------12-12-12-12-14-14-14-14-12-12-12-12-12-12-------12-12-12-12-16-16---|
G|-11-11---------------------------------------------------------------------|
D|-------------------------------------------------14-14---------------------|
A|---------------------------------------------------------------------------|
E|---------------------------------------------------------------------------|

   e  e  e  e  e  e  e  e  e  e  e  e  e  e  e  e  e  e  e  e  e  e  e  e
e|---------------------------------------------------------------------------|
B|-16-16-14-14-14-14-14-14-------12-12-12-12-14-14-14-14-12-12-12-12-12-12---|
G|-------------------------11-11---------------------------------------------|
D|---------------------------------------------------------------------------|
A|---------------------------------------------------------------------------|
E|---------------------------------------------------------------------------|

   e  e  e  e  e  e  e  e  e  e  e  e  e  e  e  e  w
e|---------------------------------------------------------------------------|
B|-------12-12-12-12-16-16-16-16-14-14-14-14-14-14-12------------------------|
G|---------------------------------------------------------------------------|
D|-14-14---------------------------------------------------------------------|
A|---------------------------------------------------------------------------|
E|---------------------------------------------------------------------------|
 
 
Hillsong - God Is Able :: indexed at Ultimate Guitar.
God Is Able tabs @ 911Tabs

Quick tip, so you can enjoy God Is Able even more:

After the registration (which takes just 10 seconds, remember?) you will be able to use your profile - your very own piece of YourChords.com.

Show us your talent, perform God Is Able!

Here you can post a video or audio performance. Tell me more ...
Where can we find your performance? Tell me more ...
Your comment:
Please, log in to post your performance.