Artists by letter: A B C D E F G H I J K L M N O P Q R S T U V W X Y Z 0-9

 
As The Deer
As The Deer By Jim Greeninger ( i know is not by hillsongs but is the only way to post this.
Tabs by: Miguel J. Jimenez http://www.facebook.com/migueljuanjimenez
           Optional Tuning as Jim Greeninger plays it is 6.C- 5.G" 4.C- 3.F- 2.A- 1.D

E-||-------0--3-|-3-----0-------|------Slide----|----------------|
B-||-------1----|-0-------3---1-|-----3~~\\~~5--|-6-5------------|
G-||*------0----|-0---0-------2-|---2-----------|-5----7--5------|
D-||*---2-------|---------------|-2-------------|----------------|
A-||--3---------|-2-----------0-|---------------|----------------|
D-||------------|---------------|---------------|-5--------------|

E--5------5--|-3-------3--|-3--------3--|-1--0-------------0-----|
B------6-----|------------|-------3-----|-3--1---3-1-0-1-3-0-----|
G----5-------|------4-----|-----4-------|--------4-2-0-2-4-------|
D------------|----5-------|-------------|------------------------|
A------------|------------|-------------|------------------------|
D--3---------|-3----------|-2-----------|------------------------|

E--------0--3|-3-----0-------|------Slide----|-------------------|
B-------1----|-0-------3---1-|-----3~~\\~~5--|-6-5---------------|
G------0-----|-0---0-------2-|---2-----------|-5----7--5---------|
D----2-------|---------------|-2-------------|-------------------|
A--3---------|-2-----------0-|---------------|-------------------|
D------------|---------------|---------------|-5-----------------|
mistake here before now fixed                         repeat 1 more
E-------------------|----------|-----------|---------------||----|
B--1--------3~\\~~5-|-3--------|-----------|---------------||----|
G--0----0-----------|------4---|------0----|-----0--------*||----|
D-----0-------------|----5---5-|----2------|---0----------*||----|
A-------------------|----------|--3-----3--|-2-----2-------||----|
D--3----------------|-3--------|-----------|---------------||----|

E--------8---8|-8---8--7--|--------------|--------------5|----5---|
B--------5----|-5---5-----|--10---10---8-|-------------5-|----5---|
G--------5----|-5---5-----|--9----9----7-|------------5--|----5---|
D--------7----|-7---7-----|--10---10---9-|--------3------|--------|
A--0----------|-----------|--8---------7-|-----0---------|--------|
D-------------|-----------|--------------|-0-------------|-0----0-|


E--5--3--1-|------0-|--------------------------------------------|
B--5--3--1-|------0-|-------0------------------------------------|
G--5--4--2-|------1-|-------0------------------------------------|
D----------|--------|-------0------------------------------------|
A----------|--------|--------------------------------------------|
D----------|-0-1-2--|-2~\\~~5------------------------------------|


E-||-------0--3-|-3-----0-------|------Slide----|----------------|
B-||-------1----|-0-------3---1-|-----3~~\\~~5--|-6-5------------|
G-||-------0----|-----0-------2-|---2-----------|-5----7--5------|
D-||----2-------|---------------|-2-------------|----------------|
A-||--3---------|-2-----------0-|---------------|----------------|
D-||------------|---------------|---------------|-5--------------|

E-------------------|----------|-----------|---------------------|
B--1--------3~\\~~5-|-3--------|-----------|---------------------|
G--0----0-----------|------4---|------0----|-----0---------------|
D-----0-------------|----5---5-|----2------|---0-----------------|
A-------------------|----------|--3-----3--|-2-----2-------------|
D--3----------------|-3--------|-----------|---------------------|
  play  this fast (bottom)     
E--------------------5-7-8|--------------|5-------5----5-|----5---|
B------------------5------|--10---10---8-|-5------5----5-|----5---|
G------------2-4-5--------|--9----9----7-|--5-----5----5-|----5---|
D----------2--------------|--10---10---9-|---0----0------|--------|
A--0--(h)3----------------|--8---------7-|----0---0------|--------|
D-------------------------|--------------|-----0-0-------|-0----0-|

E--5--3--1-|-------0-|---------------------------------------------|
B--5--3--1-|-------0-|-------0-------------------------------------|
G--5--4--2-|-------1-|-------0-------------------------------------|
D----------|I made --|-------0-------------------------------------|
A----------|a error--|-but fixed now-------------------------------|
D----------|-0-1-2---|-2~\\~~5-------------------------------------|


E-||-------0--3-|-3-----0-------|------Slide----|----------------|
B-||-------1----|-0-------3---1-|-----3~~\\~~5--|-6-5------------|
G-||*------0----|-----0-------2-|---2-----------|-5----7--5------|
D-||*---2-------|---------------|-2-------------|----------------|
A-||--3---------|-2-----------0-|---------------|----------------|
D-||------------|---------------|---------------|-5--------------|


E--5------5--|-3-------3--|-3--------3--|-1--0-------------0-----|
B------6-----|------------|-------3-----|-3--1---3-1-0-1-3-------|
G----5-------|------4-----|-----4-------|--------4-2-0-2-4-------|
D------------|----5-------|-------------|------------------------|
A------------|------------|-------------|------------------------|
D--3---------|-3----------|-2-----------|------------------------|

E-------0--3-|-3-----0-------|------Slide----|-------------------|
B-------1----|-0-------3---1-|-----3~~\\~~5--|-6-5---------------|
G------0-----|-0---0-------2-|---2-----------|-5----7--5---------|
D----2-------|---------------|-2-------------|-------------------|
A--3---------|-2-----------0-|---------------|-------------------|
D------------|---------------|---------------|-5-----------------|

E-------------------|----------|-----------|---------------||-----|
B--1--------3~\\~~5-|-3--------|-----------|---------------||-----|
G--0----0-----------|------4---|------0----|-----0--------*||-----|
D-----0-------------|----5---5-|----2------|---0----------*||-----|
A-------------------|----------|--3-----3--|-2-----2-------||-----|
D--3----------------|-3--------|-----------|---------------||-----|

E--------------------5-7-8|--------------|5-------5----5-|----5---|
B------------------5------|--10---10---8-|-5------5----5-|----5---|
G------------2-4-5--------|--9----9----7-|--5-----5----5-|----5---|
D----------2--------------|--10---10---9-|---0----0------|--------|
A--0--(h)3----------------|--8---------7-|----0---0------|--------|
D-------------------------|--------------|-----0-0-------|-0----0-|

E----3--1-|-------0-|-----------------|----3~\~~5~~/~3------------|
B----3--1-|-------0-|-----------------|----3~~\~5~~/~3------------|
G----4--2-|-------1-|--------1--------|slidedown\\&//up-----------|
D---------|---------|-0-(h)2---0------|---------------------------|
A---------|---------|------------3--2-|-0--pause then slide-------|
D---------|-0-1-2---|-----------------|-----let A string Ring-----|

E-|-3-----0-------|------Slide----|----------------|
B-|-0-------3---1-|-----3~~\\~~5--|-6-5------------|
G-|-----0-------2-|---2-----------|-5----7--5------|
D-|---------------|-2-------------|----------------|
A-|-2-----------0-|---------------|----------------|
D-|---------------|---------------|-5--------------|

E------------------3|----------|----------0-----------|--0------|
B--1-------3~\\~5---|-3--------|------------1---1---1-|-----3---|
G--0----------------|------4---|--------------4---4---|---------|
D-----0-------------|----5---5-|-------2--------------|---------|
A-------------------|----------|--0-------------------|---------|
D--3----------------|-3----3---|----------------------|---------|

                                  play these Chords fast
E------------------|-------------|-------|-------|-------|--------|
B--1----1"3---5----|-3-----------|-----1-|-----1-|-----1-|-----0--|
G--0---------------|------4------|-----0-|-----0-|-----2-|-----0--|
D-----2------------|----5---5----|---2---|---0---|---2---|---0----|
A--0---------------|-------------|-3-----|-2-----|-0-----|--------|
D------------------|-3-----------|-------|-------|-------|-5------|

                              do this ending Slow
E---------|-------|---------|-------------5"5----7-5-----------10-|
B------1--|-----1-|------3--|-----------7-------------8--7--<7>---|
G------2--|-----2-|------3--|---------7---------------------<7>---|
D----0----|---2---|----3----|------4------------------------------|
A---------|-------|---------|----0--------------------------------|
D--3------|-2-----|--1------|--0----------------------------------|

you can end as this (or)          (or my favorite)
E-2----------------|-5---------|-5---------------------------------|
B--2---------------|--2--------|---0-------------------------------|
G---2--------------|---2-------|-----5-----------------------------|
D----4-------------|----4------|-------3---------------------------|
A------0-----------|------0----|---------0-------------------------|
D--------0---------|--------0--|-----------0-----------------------|


*Alternate tuning
D--------------------IF YOU HAVE ANY QUESTIONS--------------------------|
A-------------------MSG ME ON MY FACEBOOK PAGE--------------------------|
F----------------------ENJOY AND GOD BLESS------------------------------|
C---I DID MY BEST TO TAB THIS OUT SO I HOPE YOU GUYS LIKE IT------------|
G----THE ONLY PART I DIDN’T TAB IS WEN HE TRANSPOSES UP 2 FRETS---------|
C----- BUT IS BASICALY THE SAME JUST 2 STPES UP I THINK --------|
 
 
Hillsong - As The Deer :: indexed at Ultimate Guitar.
As The Deer tabs @ 911Tabs

Quick tip, so you can enjoy As The Deer even more:

If you spend just 10 seconds to register, you will be able to comment on all the chords and tabs and rate them. You will as well be able to comment on videos of your fellow guitarists and give them ratings from 1 to 5 ... And - of course - you can share your own videos with them and see what they think of you. :)
Click here to join us!

Show us your talent, perform As The Deer!

Here you can post a video or audio performance. Tell me more ...
Where can we find your performance? Tell me more ...
Your comment:
Please, log in to post your performance.