Artists by letter: A B C D E F G H I J K L M N O P Q R S T U V W X Y Z 0-9

 
Demi Si Kici
[Intro]
e|-----------------------------------|
B|--4-6-8-8-8-8-6-8-6-4-3--1-3-4-4-4-|
G|-----------------------------------|
D|-----------------------------------|
A|-----------------------------------|
E|-----------------------------------|

e|-----------------------------------|
B|4-3-4-3-1--------------9-8-9-8-6-4-|
G|----------3--1-3-5-5-5-------------|
D|-----------------------------------|
A|-----------------------------------|
E|-----------------------------------|

e|-----------------------------------|
B|--3-4-6-6-6-8-6-4-3-4-6------------|
G|-----------------------------------|
D|-----------------------------------|
A|-----------------------------------|
E|-----------------------------------|

[Verse]
 G                Bm
Waktu kamu masih sekolah rendah
 Em                  Bm
Belum kau kenal apa itu bercinta
 C                  G
Yang aku tahu cuma bermain saja
 Am                   D
Maklumlah baru darjah lima

 G                  Bm
Tiba masanya kamu skolah menengah
 Em                  Bm
Dengan tiba-tiba kau telah jatuh cinta
 C                        G
Dengan seorang gadis yang berkaca mata
 Am                   D
Comel orangnya dan jelita

 G               Bm
Bila ku tanya siapakah namanya
 Em                      Bm
Rileks dia berkata bah'wa Sharon namanya
 C                   G
Aduh manisnya cantik sangat orangnya
 Am               D
Membuat ku tergila-gila
 
[Chorus]
  Em            Bm
Tapi kawanku bilang
  C                   G
Dia jahat dan sangat nakal
  Em              Bm
Tapi kawan kau bilang
  C                    D 
Dia jahat dan sangat nakal

[Verse]
                 G
Tapi kau tidak peduli
-Tapi ku tidak peduli
                    Bm
Dengan kawan baikmu sendiri                        C                D     
Daripada ku kecewa, lebih baik aku 
    G
mengkhianati

             G
Jika kau tak direstui
-Jika ku tak direstui
                 Bm
Oleh ibu bapa mu sendiri                              C               D
Aku sanggup melawan demi si kici yang aku
 G
cintai

             G
Jikalau kamu dibenci
-Jikalau aku dibenci
                   Bm
Oleh masyarakat di sekeliling                     C                      D        
Ku tidak akan peduli baik pergi jaga hal
   G
sendiri

[Chorus]
  Em            Bm
Tapi kawanku bilang
  C                   G
Dia jahat dan sangat nakal
  Em              Bm
Tapi kawan kau bilang
  C                    D 
Dia jahat dan sangat nakal
 
 
Hezron Hezreynold - Demi Si Kici :: indexed at Ultimate Guitar.
Demi Si Kici tabs @ 911Tabs
People who played Hezron Hezreynold - Demi Si Kici also played these songs by Hezron Hezreynold:
Pertama Kali Chords, Demi Si Kici Chords, Pertama Kali

Quick tip, so you can enjoy Demi Si Kici even more:

If you spend just 10 seconds to register, you will be able to comment on all the chords and tabs and rate them. You will as well be able to comment on videos of your fellow guitarists and give them ratings from 1 to 5 ... And - of course - you can share your own videos with them and see what they think of you. :)
Click here to join us!

Show us your talent, perform Demi Si Kici!

Here you can post a video or audio performance. Tell me more ...
Where can we find your performance? Tell me more ...
Your comment:
Please, log in to post your performance.