Artists by letter: A B C D E F G H I J K L M N O P Q R S T U V W X Y Z 0-9

 
Hard On Myself
Hemming - Hard On Myself

Capo 3rd

Notes:
-Mute/Don't strum low E string on Em


[Intro]
  Am                                 Am
e|----------0---0-0---------0---0-0-|----------0---0-0---------0---0-0-|
B|----------1---1-1---------1---1-1-|----------1---1-1---------1---1-1-|
G|--2---2---2---2-2-2---2---2---2-2-|--2---2---2---2-2-2---2---2---2-2-|
D|--2---2-----------2---2-----------|--2---2-----------2---2-----------|
A|--0-------------------------------|----------------------------------|
E|----------------------------------|----------------------------------|
    ^   ^   ^   ^ v ^   ^   ^   ^ v    ^   ^   ^   ^ v ^   ^   ^   ^ v
    1   a   2   a   3   a   4   a      1   a   2   a   3   a   4   a

  Am               C                G                Am
e|----------------|----------------|----------------|----------------|
B|----------------|----------------|----------------|----------------|
G|-2-----4--2h-0--|----------------|----------------|----------------|
D|----------------|2---------------|0-------2--0----|----------------|
A|----------------|--------------3-|--------------3-|0---------------|
E|----------------|----------------|----------------|----------------|

  Am               C                G                F
e|----------------|----------------|----------------|----------------|
B|----------------|----------------|----------------|----------------|
G|-2-----4--2h-0--|----------------|----------------|----------------|
D|----------------|2---------------|0-------2--0----|----------------|
A|----------------|--------------3-|--------------3-|0---------------|
E|----------------|----------------|----------------|----------------|


[Verse 1]
   Am                   C
I feel so weak but you call me strong
        G              F
I could only see everything that was wrong
               Am                C
Cause I don't understand where I am right now
              G                 F
I'm full of empty cans I just can't throw out

                Am                C
And I've been living life like a pendulum
           G                  F 
Swinging side to side, never moving on
                 Am                 C
Cause I've been stuck inside this place so long
      G                    F
I forget my life and where I came from


[Chorus]
        C               Em
But I know you said let go I've been
   Dm             G
So hard on myself for so long
        C                Em
Yeah I know you said let go I've been
    Dm             G
Too hard on myself for too long


[Verse 2]
Am              C
Uhhhh Uh Uh Uh  Uhhhh           
G               F
Ahhhh Ah Ah Ah  Ahhhh   

Am                     C
Break or bend I could make this work
           G                    F
Hope they comprehend show them what I'm worth
            Am                         C
Or I could live a lie and stay their little girl
           G                      F
I'm barely getting by between two separate worlds


[Chorus]
        C               Em
And I know you said let go I've been
   Dm             G
So hard on myself for so long
        C                Em
Yeah I know you said let go I've been
    Dm             G
Too hard on myself for too long


[Bridge]
Dm          Am      C       G
    I can't regret who I've been
Dm          Am         C     G
    I can't expect to always win
Dm          Am      C       G             N.C.
    I can't regret who I've been        [Pause]


[Outro]
Am              C
Uhhhh Uh Uh Uh  Uhhhh           
G               F
Ahhhh Ah Ah Ah  Ahhhh 

Am              C
Uhhhh Uh Uh Uh  Uhhhh           
G               F
Ahhhh Ah Ah Ah  Ahhhh 

Am              C
Uhhhh Uh Uh Uh  Uh.. I used to be so 
G               F
hard on myself for so long

Am              C
Uhhhh Uh Uh Uh  Uh.. I used to be so 
G               F
hard on myself for so long

Am              C
Uhhhh Uh Uh Uh  Uh.. I used to be so 
G               F
hard on myself 

Am              C
Uhhhh Uh Uh Uh  Uhhhh           
G               F
Ahhhh Ah Ah Ah  Ahhhh 

Am              C
Uhhhh Uh Uh Uh  Uh.. I used to be so 
G               
hard on myself   *G : strum once, let ring  
 
 
hemming - Hard On Myself :: indexed at Ultimate Guitar.
Hard On Myself tabs @ 911Tabs

Quick tip, so you can enjoy Hard On Myself even more:

YourChords.com Guitar Chords and Tabs Archive is currently indexing over 240'000 songs from 21'000+ different artists. And new chords just keep on coming in, so you will surely never run out of them.

Show us your talent, perform Hard On Myself!

Here you can post a video or audio performance. Tell me more ...
Where can we find your performance? Tell me more ...
Your comment:
Please, log in to post your performance.