Artists by letter: A B C D E F G H I J K L M N O P Q R S T U V W X Y Z 0-9

 
The Choice
[Intro]

e|---------------------------------------------------------------------------|
B|---------------------------------------------------------------------------|
G|---------------------------------------------------------------------------|
D|------5----------2------4-----------5-----------2------4-------0-----2-----|
A|---7----------3------5-----------7-----------3------5-------2-----3--------|
E|---------------------------------------------------------------------------|x2 


[Main Part]

e|--------------------------------------------------------------------------------------------|
B|--------------------------------------------------------------------------------------------|
G|--------------------------------------------------------------------------------------------|
D|------------------6--7--9------2----4------6------------6--7--9-----2--------4------2-------|
A|-----7----------7-----------3------------7------------7----------3----------------2---------|
E|---0----------0------------------------0------------0---------------------------0-----------|

e|---------------------------------------------------------------------------------|
B|---------------------------------------------------------------------------------|
G|---------4---------2----2--------1-----1-----------------------------------------|
D|-------4---------2-------------2----------2------1-------------------------------|
A|---2/5------5--3-------------2-----------------2---------------------------------|
E|---------------------------------------------------------------------------------|


[Outro]

e|---------------------------------------------------------------------------|
B|---------------------------------------------------------------------------|
G|--------------------------------------------------------------------0------|
D|-------5--------2------4---------5-----------2------4-------0-----2--------|
A|---7----------3-----5---------7-----------3------5-------2------3----------|
E|---------------------------------------------------------------------------|



************************************

| /  Slide up

************************************
 
 
Gustavo Santaolalla - The Choice :: indexed at Ultimate Guitar.
The Choice tabs @ 911Tabs

About the artist behind The Choice:

Gustavo A. Santaolalla (born 19 August 1951, in El Palomar, Argentina) [1] is an Argentine musician, film composer and producer.

Indexed at Wikipedia.

Show us your talent, perform The Choice!

Here you can post a video or audio performance. Tell me more ...
Where can we find your performance? Tell me more ...
Your comment:
Please, log in to post your performance.