Artists by letter: A B C D E F G H I J K L M N O P Q R S T U V W X Y Z 0-9

 
The Choice
The Choice - Gustavo Santaolalla

I have transcribed this by ear and it's my first attempt at a tab.
Corrections and ratings are very much appreciated.
Enjoy.

Tuning: BADGBe (Drop B in standard variation)

e|-----------------------------------------|
B|-----------------------------------------|
G|-----------------------------------------|
D|--5---2---4-----5---2---4----0---2-------|
A|-----------------------------------------|
B|-5---1---3-----5---1---3----0---1--------| x2

e|---------------------------------|
B|---------------------------------|
G|------------------5--------------|
D|--------6--7-9---7---------6-----|
A|--7----7--------7---7/9---7------|
B|-5----5--------5---------5-------|

e|-----------------------------|
B|-----------------------------|
G|--------------5--------------|
D|----6--7-9---7---------------|
A|---7--------7---7/9---7------|
B|--5--------5---------5-------|

e|----------------------------------------|
B|----------------------------------------|
G|-------4-----2----1---1-----------------|
D|------4-----2----2-2---2----4-1---------|
A|---2/5---5-3----2---2------2---2--------|
B|---------------0----------0-------------|

e|-----------------------------------------|
B|------------------------------------0----|
G|-----------------------------------0-----|
D|--5---2---4-----5---2---4----0----2------|
A|---------------------------------2-------|
B|-5---1---3-----5---1---3----0---1--------|

 
 
Gustavo Santaolalla - The Choice :: indexed at Ultimate Guitar.
The Choice tabs @ 911Tabs

About the artist behind The Choice:

Gustavo A. Santaolalla (born 19 August 1951, in El Palomar, Argentina) [1] is an Argentine musician, film composer and producer.

Indexed at Wikipedia.

Show us your talent, perform The Choice!

Here you can post a video or audio performance. Tell me more ...
Where can we find your performance? Tell me more ...
Your comment:
Please, log in to post your performance.