Artists by letter: A B C D E F G H I J K L M N O P Q R S T U V W X Y Z 0-9

 
Home
Home Tabs - Gustavo Santaolalla - The Last of Us
Tabbed by: Cheesehead604
Tuning: eBGDAE (Standard)

*This is my first tab to the site ever, so if you hear something wrong,
 please post it in the comment section below! I played to the original with these tabs,
so they should be right, but there's always a chance.
Hope you like it!*

Disclaimer: When I refer to a bar, I mean the tablature layout thing.

e|------------------------------------------------------------------|
B|--------------------3-----5/-----7\-----5-----3-------------------|
G|--------4/-5\-4-----------------------------------------4---------|
D|----4-------------------------------------------------------------|
A|------------------------------------------------------------------|
E|------------------------------------------------------------------|

e|---------------------------------------------------------------|
B|------3-----5/-----7\-----5-----3------------------------------|
G|---------------------------------------4-----------------------|
D|---------------------------------------------------------------|
A|---------------------------------------------------------------|
E|---------------------------------------------------------------|

REPEAT FIRST TWO BARS

e|---------------------------------------------------------------|
B|---------------------------------------------------------------|
G|---------------4---------------3-------------------------------|
D|------4--------------------------------------------------------|
A|---------------------------------------------------------------|
E|---------------------------------------------------------------|

e|---------------------------------------------------------------|
B|----------3----------------------------------------------------|
G|--------4----------------2------------1------------------------|
D|------4--------------------------------------------------------|
A|----2----------------------------------------------------------|
E|---------------------------------------------------------------|

e|---0------0----3----2/----7----0---0----3----2-----0-------------|
B ---1---------------------------1-------------------0-------------|
G |--2---------------------------2-------------------0-------------|
D|---2---------------------------2-------------------2-------------|
A|---0---------------------------0-------------------2-------------|
E|---0---------------------------0-------------------0-------------|

e|--0----0----3----2/----7----5\----2--------------------------------|
B|--1----------------------------------------------------------------|
G|--2----------------------------------------------------------------|
D|--2----------------------------------------------------------------|
A|--0----------------------------------------------------------------|
E|--0----------------------------------------------------------------|

This is as much as I can remember how to play. You pretty much just repeat as many times 
as desired. =)

| /  slide up
| \  slide down
| h  hammer-on
| p  pull-off
| ~  vibrato
| +  harmonic
| x  Mute note
 
 
Gustavo Santaolalla - Home :: indexed at Ultimate Guitar.
Home tabs @ 911Tabs

About the artist behind Home:

Gustavo A. Santaolalla (born 19 August 1951, in El Palomar, Argentina) [1] is an Argentine musician, film composer and producer.

Indexed at Wikipedia.

Show us your talent, perform Home!

Here you can post a video or audio performance. Tell me more ...
Where can we find your performance? Tell me more ...
Your comment:
Please, log in to post your performance.