Artists by letter: A B C D E F G H I J K L M N O P Q R S T U V W X Y Z 0-9

 
Deportationiguazu
These are tabs for the entire song. Some parts are repeated more times than I have 
down,
but I'm sure you can manage by listening to the original track attentively for a few times.

Enjoy!
JeroenC

e|--------------------------------------------------------------------------|
B|--------12-------10------10h12--------------------------------------------|
G|9--------------------------------------9--------7-------5------------4----|
D|-----12-------10----------------------------------------------------------|
A|-----------------------------------10--------9-------7----------7---------|
E|--------------------------------------------------------------------------|

|7-----6-----7-----6-----7-----6-----7-----3-----3-----3-----3-----|
|--0-----0-----0-----0-----0-----0-----0-----0-----0-----0-----0---|
|----9-----9-----9-----9-----9-----9-----9-----4-----4-----4-----4-|
|------------------------------------------------------------------|
|------------------------------------------------------------------|
|------------------------------------------------------------------|

|7-----6-----7-----6-----7-----6-----7-----------------------------|
|--0-----0-----0-----0-----0-----0-----0---------------------------|
|----9-----9-----9-----9-----9-----9-----9-------------------------|
|------------------------------------------------------------------|
|------------------------------------------------------------------|
|------------------------------------------------------------------|

|7-----6-----7-----6-----7-----6-----7-----3-----3-----3-----3-----|
|--0-----0-----0-----0-----0-----0-----0-----0-----0-----0-----0---|
|----9-----9-----9-----9-----9-----9-----9-----4-----4-----4-----4-|
|------------------------------------------------------------------|
|------------------------------------------------------------------|
|------------------------------------------------------------------|

|-3-----5-----3-----0----------0----0-----0-----0--|
|---0-----0-----0-----0-----3-----3-----3-----3----|
|-----4-----4-----4-----4-----4----4-----4-----4---|
|--------------------------------------------------|
|--------------------------------------------------|
|--------------------------------------------------|

e|-----3-----3-----3-----3-----3-----3---3--------------------|
B|-3-5---5-5---5-7---7-7---7-7---7-7---7---5------------------|
G|------------------------------------------------------------|
D|------------------------------------------------------------|
A|------------------------------------------------------------|
E|------------------------------------------------------------|

e|------3-----3-----3-----3-----3-----3---------------5---5---5---5---3---3---3---3--|
B|--3-5---5-5---5-7---7-7---7-7---7-7---7--------------6---6---6---6---5---5---5---5-|
G|------------------------------------------------------5---5---5---5---4---4---4---4|
D|-----------------------------------------------------------------------------------|
A|-----------------------------------------------------------------------------------|
E|-----------------------------------------------------------------------------------|

|-8----7---5-----3-5-3---2---2---2---3-2---0---0---0---------------|
|--10---8---7-------------4---4---4---------0---0---0--------------|
|----9---9---8-------------4---4---4---------4---4---4-------------|
|------------------------------------------------------------------|
|------------------------------------------------------------------|
|------------------------------------------------------------------|
 
 
Gustavo Santaolalla - Deportationiguazu :: indexed at Ultimate Guitar.
Deportationiguazu tabs @ 911Tabs
People who played Gustavo Santaolalla - Deportationiguazu also played these songs by Gustavo Santaolalla:
De Usuahia A La Quiaca Tab, Deportationiguazu Tab, Wings Tab, Brokeback Mountain Tab, Apertura Tab, The Last Of Us Goodnight Tab

About the artist behind Deportationiguazu:

Gustavo A. Santaolalla (born 19 August 1951, in El Palomar, Argentina) [1] is an Argentine musician, film composer and producer.

Indexed at Wikipedia.

Show us your talent, perform Deportationiguazu!

Here you can post a video or audio performance. Tell me more ...
Where can we find your performance? Tell me more ...
Your comment:
Please, log in to post your performance.