Artists by letter: A B C D E F G H I J K L M N O P Q R S T U V W X Y Z 0-9

 
Its A Shame Chords
It's A Shame

Capo on 4th!!!


Intro 2x:
E--3----5--3--7-----5--3-----2--3----------------------------|
B----3-----------3--------3----------------------------------|
G------------------------------------------------------------|
D------------------------------------------------------------|
A------------------------------------------------------------|
E------------------------------------------------------------|


G D
I hate to be
C
To be the one
Am G
Who's given up and feels that all our hope is gone
D
But what I thought
C
Was a miracle
Am
Just turned into the same old

Problem that it was


PreChorus:
Am G C Em (quickly)
She longs for better days
Am G C
She's always been afraid


Chorus:
Am C
It's a shame, oh it's a shame
G D
That you are throwing your whole life away
Am C
It's a shame, oh it's a shame
G D
I wonder if you're ever going to change
C
It's a shame

E--3---------2----------3---------------------------|
B----3---------3-----------3------------------------|
G------2---------2------------0---------------------|
D---------------------------------------------------|
A---------------------------------------------------|
E---------------------------------------------------|




Verse 2:
Ever since I can recall
She has been so afraid
Of you losing it all
What do you want?
Do you even know?
And is it worth the pain?
We all have to endure
PreChorus:
She longs for better days
She's always been afraid
Chorus

Bridge:
C
You left her without leaving
G
You hit her without swinging
D C
You took away without giving a thing
C
Except for pain and sorrow
G
I'm praying that tomorrow
F D
You will open up your eyes and see

Chorus

 
 
Third Day - Its A Shame Chords :: indexed at Ultimate Guitar.
Its A Shame tabs @ 911Tabs

About the artist behind Its A Shame Chords:

Third Day is a CCM band formed in Marietta, Georgia during the 1990s. The band was founded by lead singer Mac Powell and guitarist Mark Lee. The other band members are Tai Anderson (bass), and David Carr (drums). The band's name is a reference to the biblical account of Jesus rising from the dead on the third day following his crucifixion.

Indexed at Wikipedia.

Show us your talent, perform Its A Shame Chords!

Here you can post a video or audio performance. Tell me more ...
Where can we find your performance? Tell me more ...
Your comment:
Please, log in to post your performance.